Oops, an error
Loading. Please wait.

Magic bass

version 1
version 1

Whole song

Interactive

3,332 views 9 this week
1 commentread comment
1 2 3 4 5
x 5
add to favorites
×
Save as Personal and add changes to this tab that will be seen only by you. Learn more ›
×
You can save this tab as Personal to edit and correct it or add notes. All changes will be seen only by you. Learn more »
launch autoscroll
font size
0
reset
guitar tuner
edit
Autoscroll
slow
fast
+/-
esc
set tempo
stop
Author
Unregistered
"MAGIC"
BY THE CARS
TABBED BY FRANKMAN

                          VERSE

G------------------
D---0--2-------------
A-0--------------- keep repeating
E----------0-0-2-0-


                         CHANGE

G-------------------------------------------------------------------------
D-------------------------------------------------------------------------
A-9-9-9-9-9-9-9-9-5-5-5-5-5-5-5-5-7-7-7-7-7-7-7-7-9-9-9-9-9-9-9-9-9-9-9-9-
E-------------------------------------------------------------------------

G---------------------------------------------------------
D---------------------------------------------------------
A-9-9-9-9-5-5-5-5-5-5-5-5-7-7-7-7-7-7-7-7-7-7-7-7-7-7-7-7-
E---------------------------------------------------------

            
            
Suggest correction
Creating personal tab
Creating personal tab
You can edit any tab online and save it as your Personal.

You can edit, replace or remove any tab part or add personal notes – all changes will be seen only by you.

Personal tabs can be accessed anytime from any device, even offline.
Learn more »
comments
print report bad tab
1 comment total.
0 reply
RobRom12 10 Dec 26, 2014 04:26 PM

Not bad, a few passing notes (or whatever you want to call them) missing, But over all OK.

guest
Wanna post a correction for this tab? Suggest correction