Oops, an error
Loading. Please wait.

Wildwood Flower tab

version 1
version 1

Whole song

Interactive

163,306 views 285 this week
6 commentsread comments
1 2 3 4 5
x 38
add to favorites
×
Save as Personal and add changes to this tab that will be seen only by you. Learn more ›
×
You can save this tab as Personal to edit and correct it or add notes. All changes will be seen only by you. Learn more »
launch autoscroll
font size
0
reset
how to read this tab
guitar tuner
edit
Autoscroll
slow
fast
+/-
esc
set tempo
stop
-------------------------------------------------------------------------------------------------
Wildwood Flower - Carter Family
--------------------------------------------------------------------------------------------------
Tabbed by:FoggyMtn
Email:huntmanc15@yahoo.com

Tuning:standard

This is the entire song, not to hard, but a pretty easy old country song that sounds pretty good.

Anywhere there is a strum, i have indicated whether it is an up strum, down strum, or
Thanks and have fun with it.

                                Repeat twice
             ^v            ^v            ^v            ^v    ^v    ^
e|-----------0-------------0-------------1-------------0-----0-----0---------|
B|-----------1-------1-----1-------------0-------------1-----1-----1---------|
G|--------0--0--0h2--------0-------------0-------------0-----0-----0---------|
D|--2--3----------------2-----2h3--2--0-----2p0-----------2------------------|
A|-----------------------------------------------2--3-----------3------------|
E|---------------------------------------------------------------------------|

                      After the Above is played twice play this
                   ^v          ^v    ^v      ^v          ^             ^v
e|--------------0--0--0--------0-----0-------1-----------0-------------0---------|
B|-----------1-----1-----3--1--1-----1-------1--1--------1-------------1---------|
G|--------0--------0-----------0--0--0--0h2--0-----2--0--0-------------0---------|
D|-------------------------------------------------------------0--0h2------------|
A|----------------------------------------------------------3--------------------|
E|-------------------------------------------------------------------------------|
         ^v      ^           ^v            ^v    ^v    ^
e|-------0-------0-----------1-------------0-----0-----0---------------------|
B|-------1-------1-----------0-------------1-----1-----1---------------------|
G|-------0-------0--0--------0-------------0-----0-----0---------------------|
D|--0h2-----0h2--------2--0-----2p0-----------2------------------------------|
A|-----------------------------------2--3-----------3------------------------|
E|---------------------------------------------------------------------------|
           After the above two lines are played twice play this
                  ^v          ^v    ^v      ^v          ^v            ^v
e|--------------0--0--0--------0-----0-------1-----------0-------------0-------|
B|-----------------1-----3--1--1-----1-------1--1--------1-------------1-------|
G|-----------------0-----------0--0--0--0h2--0-----2--0--0-------------0-------|
D|-------2---3-------------------------------------------------0--0h2----------|
A|---------------------------------------------------------3-------------------|
E|-----------------------------------------------------------------------------|

         ^v      ^           ^v            ^v    ^v
e|-------0-------0-----------1-------------0-----0---------------------------|
B|-------1-------1-----------0-------------1-----1---------------------------|
G|-------0-------0--0--------0-------------0-----0---------------------------|
D|--0h2-----0h2--------2--0-----2p0-----------2------------------------------|
A|-----------------------------------2--3------------------------------------|
E|---------------------------------------------------------------------------|


If you have any questions, comments, or corrections you can email me at
or my AIM sn is FastnFurious151

===============================================================================

| /  slide up
| \  slide down
| h  hammer-on
| p  pull-off
| ~  vibrato
| +  harmonic
| x  Mute note

===============================================================================

            
            
Suggest correction
Creating personal tab
Creating personal tab
You can edit any tab online and save it as your Personal.

You can edit, replace or remove any tab part or add personal notes – all changes will be seen only by you.

Personal tabs can be accessed anytime from any device, even offline.
Learn more »
comments
print report bad tab
6 comments total. Showing first comments.
0 reply
musicmaker95 10 Mar 20, 2013 06:35 PM

amazing!! :)

0 reply
ratnip610 10 Dec 20, 2013 07:30 AM

any idea on what the tuning is for when loretta lynn plays this? it sounds a bit different to me, but i can't figure it out.

0 reply
simonb2 10 Apr 18, 2015 01:46 PM

use a capo

guest
You may want to rate the tab now too:
select rating
Wanna post a correction for this tab? Suggest correction