Oops, an error
Loading. Please wait.

Punx Unite tab

version 1
version 1

Whole song

Interactive

2,507 views 1 this week
2 commentsread comments
1 2 3 4 5
1 last vote to show rating
add to favorites
×
Save as Personal and add changes to this tab that will be seen only by you. Learn more ›
×
You can save this tab as Personal to edit and correct it or add notes. All changes will be seen only by you. Learn more »
launch autoscroll
font size
0
reset
how to read this tab
guitar tuner
edit
Autoscroll
slow
fast
+/-
esc
set tempo
stop
Author
Difficulty
Intro 1
|---------------------|
|---------------------|
|--11-------------11--|
|--11---9----11----11-| 
|--9----9----11----9--|
|-------7----9--------|
Intro 2
|------|
|------|
|------|
|--9---| 
|--9---|
|--7---|
Intro 3
|---------------------|
|---------------------|
|6----7----6-----7----|
|6----7----6-----7----|
|4----5----4-----5----|
|---------------------|

Verse
|---------------------------------------|
|---------------------------------------|
|---------11----6-----7-----6-----7-----|
|---9-----11----6-----7-----6-----7-----| 
|---9-----9-----4-----5-----4-----5-----|
|---7-----------------------------------|

Chorus
|------------------------|
|------------------------|
|---11---------9---------|
|---11----9----9----11---| 
|---9-----9----7----11---|
|---------7---------9----|

Interlude
|------------------------------------------|
|------------------------------------------|
|---9---------9----------9-----------------|
|---9----9----9----9-----9----6-------8----|
|---7----9----7----9-----7----6-------8----|
|--------7---------7----------4-------6----|

Bridge
|------------------|
|------------------|
|--------x-x-x-x---|
|---9----x-x-x-x---| 
|---9----x-x-x-x---|
|---7----x-x-x-x---|
(Pick Slide after fourth time)

Outro
|----------------------------|
|----------------------------|
|---4------7-----9----10-----|
|---4------7-----9----10-----| 
|---2------5-----7----8------|
|----------------------------|
 (will fade then return, play approx. 12 times)

ORDER:
Intro 1 (x6)
Intro 2 (x3)
Intro 3 (x1)
Verse   (x4)
Chorus  (x3)
Interlude (x1)
Verse   (x4)
Chorus  (x3)
Interlude (x1)
Bridge  (x4)
Verse   (x4)
Chorus  (x3)
Interlude (x1)
Outro   (x12)

            
            
Suggest correction
Creating personal tab
Creating personal tab
You can edit any tab online and save it as your Personal.

You can edit, replace or remove any tab part or add personal notes – all changes will be seen only by you.

Personal tabs can be accessed anytime from any device, even offline.
Learn more »
Give kudos to tab author, rate the tab!
1 2 3 4 5
comments
print report bad tab
2 comments total.
0 reply
Lt hilsdorf 51 Sep 01, 2006 01:45 PM

sounds good to me, great tab

only thing wrong that I could tell is every two times intro 1 changes, so it goes like this (again from what I can tell and I kinda suck)

first two times: one strum of each chord

second two times: hit each chord a couple times palm muted

third two times: just strumming the chords

0 reply
Joshua Mahurin 10 Aug 08, 2011 07:05 PM

Also the outro part sounds like this to me:
Outro
|-------------------------------|
|-------------------------------|
|---4------7-----9----10-9-10-9-|
|---4------7-----9----10-9-10-9-|
|---2------5-----7----8--7-8--7-|
|-------------------------------|

guest
You may want to rate the tab now too:
select rating
Wanna post a correction for this tab? Suggest correction