Oops, an error
Loading. Please wait.

Rejected And Unwanted bass

1,175 views 3 this week
3 commentsread comments
1 2 3 4 5
x 4
add to favorites
×
Save as Personal and add changes to this tab that will be seen only by you. Learn more ›
×
You can save this tab as Personal to edit and correct it or add notes. All changes will be seen only by you. Learn more »
launch autoscroll
font size
0
reset
guitar tuner
edit
Autoscroll
slow
fast
+/-
esc
set tempo
stop
Difficulty
intermediate
song: rejected and unwanted
artist: the casualties
tabbed by: isaac j (el paso tx)


intro/verse

|-------------------------------------|
|---------99999-----55555-------------|
|----------------9---------7--55555---|
|-777777------------------------------|

chorus

|------------------------------------|
|------------------------------------|
|---------------00000--55-4----------|
|-77777--33333-----------------------|

interlude

|--------------------|-every 4 times--------------------|
|--------------------|----------------------------------|
|--------1010--99----|--------55-5----------------------|
|-77777--------------|--55-5--------7-------------------|

order:

verse x8
chorus x4
verse x4
chorus x4
verse x4
chorus x4
interlude x4

Fucking rate it!!!...please.

questions/comments/concerns: ijimen05@yahoo.com

            
            
Suggest correction
Creating personal tab
Creating personal tab
You can edit any tab online and save it as your Personal.

You can edit, replace or remove any tab part or add personal notes – all changes will be seen only by you.

Personal tabs can be accessed anytime from any device, even offline.
Learn more »
comments
print report bad tab
3 comments total.
0 reply
joshbakercity 10 Mar 10, 2007 01:22 PM

sounds just like it. good comment "****ing rate it" it motivated me to start an account and rate it. do you have any other tabs?

0 reply
Mr. Thingy 260 May 06, 2007 02:57 PM

Some of the notes are missing. Also, the chorus is
G|------------------------|
D|--------------2h4-55----|
A|4444-0000-2222------5-4-|
E|------------------------|

And, the outro should be
G|--------------|--------|
D|----2h4-55----|--------|
A|2222------5-4-|000-555-|(on fourth time)
E|--------------|--------|

E|

0 reply
Dark_Adict 10 Sep 24, 2007 09:41 PM

Good tab, just put in what that guy said and also i think the difficulty is only novice cause this is a pretty easy song.

guest
Wanna post a correction for this tab? Suggest correction