Oops, an error
Loading. Please wait.

Stand Against Them All tab

695 views 1 this week
1 commentread comment
1 2 3 4 5
2 more votes to show rating
add to favorites
×
Save as Personal and add changes to this tab that will be seen only by you. Learn more ›
×
You can save this tab as Personal to edit and correct it or add notes. All changes will be seen only by you. Learn more »
launch autoscroll
font size
0
reset
how to read this tab
guitar tuner
edit
Autoscroll
slow
fast
+/-
esc
set tempo
stop
Song: Stand Against Them All
Band: The Casualties
Albm: We Are All We Have

Intro:
|---------------------------------|
|---------------------------------|
|--7--9--11--11-11-9-7--9--11-----|
|--0--0--0---0--0--0-0--0--0------|
|---------------------------------|
|---------------------------------|
|
|--------------------------------|
|--------------------------------|
|--14-12-11-12-11-9-11-9-7----77-|
|--0--0--0--0--0--0-0--0-0----00-|
|--------------------------------|
|--------------------------------|

Verse:
|  D        G        D        A
|--------------------------------------|
|--------------------------------------|
|--7-7-7-7-----------7-7-7-7-----------|
|--7-7-7-7--5-5-5-5--7-7-7-7--7-7-7-7--|
|--5-5-5-5--5-5-5-5--5-5-5-5--7-7-7-7--|
|-----------3-3-3-3-----------5-5-5-5--|
|  D        G        A
|--------------------------------------|
|--------------------------------------|
|--7-7-7-7-----------------------------|
|--7-7-7-7--5-5-5-5--xx7-xx7--xx7-xx7--|
|--5-5-5-5--5-5-5-5--xx7-xx7--xx7-xx7--|
|-----------3-3-3-3--xx5-xx5--xx5-xx5--|

Chorus:
|  D        C        G         D
|---------------------------------------|
|---------------------------------------|
|--7-7-7-7--5-5-5-5--12121212--7-7-7-7--|
|--7-7-7-7--5-5-5-5--12121212--7-7-7-7--|
|--5-5-5-5--3-3-3-3--10101010--5-5-5-5--|
|---------------------------------------|
|  F        A        D
|--------------------------------------|
|-----------------------------*--------|
|--10101010----------7-7-7-7--7-7-7-7--|
|--10101010-7-7-7-7--7-7-7-7--7-7-7-7--|
|--8-8-8-8--7-7-7-7--5-5-5-5--5-5-5-5--|
|-----------5-5-5-5--------------------|

*the second time the chorus is played on the first chorus,
a C is played here instead of a D. This only happens on the
first chorus. If you listen you will hear it.

Bridge:
|  F        C        A#
|--------------------------------------|
|--------------------------------------|
|--10101010----------------------------|
|--10101010-10101010-8-8-8-8--8-8-8-8--|
|--8-8-8-8--10101010-8-8-8-8--8-8-8-8--|  x2
|-----------8-8-8-8--6-6-6-6--6-6-6-6--|
|  G        A        D        C
|--------------------------------------|
|--------------------------------------|
|--------------------7-7-7-7--5-5-5-5--|
|--5-5-5-5--7-7-7-7--7-7-7-7--5-5-5-5--|
|--5-5-5-5--7-7-7-7--5-5-5-5--3-3-3-3--|
|--3-3-3-3--5-5-5-5--------------------|
|  G        A        C
|--------------------------------------|
|--------------------------------------|
|--------------------5-5-5-5--5-5-5-5--|
|--5-5-5-5--7-7-7-7--5-5-5-5--5-5-5-5--|
|--5-5-5-5--7-7-7-7--3-3-3-3--3-3-3-3--|
|--3-3-3-3--5-5-5-5--------------------|

Intro 2:
|------------------------------------|
|------------------------------------|
|--12--14--16--161614-12--14--16-----|
|--0---0---0---0-0-0--0---0---0------|
|------------------------------------|
|------------------------------------|

|------------------------------------|
|------------------------------------|
|--19-17-16-17-16-14-16-14-19----1919|
|--0--0--0--0--0--0--0--0--0-----0-0-|
|------------------------------------|
|------------------------------------|

Thats it. email me owen_b123@hotmail.com

            
            
Suggest correction
Creating personal tab
Creating personal tab
You can edit any tab online and save it as your Personal.

You can edit, replace or remove any tab part or add personal notes – all changes will be seen only by you.

Personal tabs can be accessed anytime from any device, even offline.
Learn more »
Give kudos to tab author, rate the tab!
1 2 3 4 5
comments
print report bad tab
1 comment total.
0 reply
LukaSt 43 Feb 29, 2012 09:11 AM

Bridge should be
Bridge:
| F C A#
|--------------------------------------|
|--------------------------------------|
|--10101010----------------------------|
|--10101010-10101010-8-8-8-8--8-8-8-8--|
|--8-8-8-8--10101010-8-8-8-8--8-8-8-8--| x2
|-----------8-8-8-8--6-6-6-6--6-6-6-6--|
| G A D C
|--------------------------------------|
|--------------------------------------|
|--------------------7-7-7-7--5-5-5-5--|
|--7-7-7-7--8-8-8-8--7-7-7-7--5-5-5-5--|
|--7-7-7-7--8-8-8-8--5-5-5-5--3-3-3-3--|
|--5-5-5-5--6-6-6-6-------------------|
| G A C
|--------------------------------------|
|--------------------------------------|
|--------------------5-5-5-5--5-5-5-5--|
|--7-7-7-7--8-8-8-8--5-5-5-5--5-5-5-5--|
|--7-7-7-7--8-8-8-8--3-3-3-3--3-3-3-3--|
|--5-5-5-5--6-6-6-6--------------------|

Otherwise its cool! 5 stars from me man!

guest
Wanna post a correction for this tab? Suggest correction