Oops, an error
Loading. Please wait.

Under Attack tab

version 1
version 1

Whole song

Interactive

2,194 views 3 this week
3 commentsread comments
1 2 3 4 5
1 last vote to show rating
add to favorites
×
Save as Personal and add changes to this tab that will be seen only by you. Learn more ›
×
You can save this tab as Personal to edit and correct it or add notes. All changes will be seen only by you. Learn more »
launch autoscroll
font size
0
reset
how to read this tab
guitar tuner
edit
Autoscroll
slow
fast
+/-
esc
set tempo
stop
ITS KINDA DECENT
Intro
E-----------------------------|
A-0-0--0-3/5-5-6-5-3-0-3-0----|
D-----------------------------|
G-----------------------------|
B-----------------------------|
E-------------------------x12-|
Right After Intro
E------5-3-----|
A-5-3--7-5-----|
D-7-5--7-5-----|
G-7-5----------|
B--------------|
E--------------|x1

Verse
E-5-5-555-5-5-555------------------|
A-7-7-777-7-7-777--7-7-777-6-7-6-4-|
D-7-7-777-7-7-777--9-9-999-8-9-8-6-|
G------------------9-9-999-8-9-8-6-|
B----------------------------------|
E----------------------------------|x4

chorus (after first chord dont push down on the strings)
E-3-33333-|
A-5-55555-|
D-5-55555-|
G---------|
B---------|
E---------|x4

E--------------------------|
A-0-0--0-3/5-5-6-5-3-0-3-0-|
D--------------------------|
G--------------------------|
B--------------------------|
E--------------------------|x1

E-3-33333-|
A-5-55555-|
D-5-55555-|
G---------|
B---------|
E---------|x4

E--------------------------|
A-0-0--0-3/5-5-6-5-3-0-3-0-|
D--------------------------|
G--------------------------|
B--------------------------|
E--------------------------|x1
                         ^
back to verse x4         ^
then do the chorus(DO THAT PART TWICE HERE)

then
E-----3-3--1-1-111------3-3-|
A-3-3-5-5--3-3-333--3-3-5-5-|
D-5-5-5-5-----------5-5-5-5-|
G-5-5---------------5-5-----|
B---------------------------|
E---------------------------|
A GUITAR FILL
E-1-1-111--3-3-333-|
A-3-3-333--5-5-555-|
D-3-3-333--5-5-555-|
G------------------|
B------------------|
E------------------|
ANOTHER FILL
E---------|
A-7-7-777-|
D-9-9-999-|
G-9-9-999-|
B---------|
E---------|x8

VERSE x4 AGAIN
CHORUS AGAIN

I KNOW SOME PARTS ARE WRONG BUT I JUST GOT IT LIKE 2 HOURS AGO SO..........

            
            
Suggest correction
Creating personal tab
Creating personal tab
You can edit any tab online and save it as your Personal.

You can edit, replace or remove any tab part or add personal notes – all changes will be seen only by you.

Personal tabs can be accessed anytime from any device, even offline.
Learn more »
Give kudos to tab author, rate the tab!
1 2 3 4 5
comments
print report bad tab
3 comments total.
0 reply
Horror_business 10 Mar 03, 2007 02:34 AM

Ahhhh! This tab is upside down!

It'd be easier if you flipped it up the right way round.

0 reply
juefro 10 Sep 30, 2007 04:00 PM

its not bad once i realized the tab was up side down. good job.

0 reply
cosea001 30 Nov 22, 2009 05:00 AM

ahhh
cant you correct this at least?
=/

guest
Wanna post a correction for this tab? Suggest correction