Oops, an error
Loading. Please wait.
We have an official Unknown Soldier tab made by UG professional guitarists. Check out the tab »
×
653 views 1 this week
2 commentsread comments
1 2 3 4 5
1 last vote to show rating
add to favorites
×
Save as Personal and add changes to this tab that will be seen only by you. Learn more ›
×
You can save this tab as Personal to edit and correct it or add notes. All changes will be seen only by you. Learn more »
launch autoscroll
font size
0
reset
how to read this tab
guitar tuner
edit
Autoscroll
slow
fast
+/-
esc
set tempo
stop
The Casualties
Unknown soldier
Standerd tuning

Intro

E:-------------------------------------------------------|*2
B:-------------------------------------------------------|
G:----5-7-8-7-7-5----------------------------------------|
D:-5--5------8-------------------------------------------|
A:-------------------------------------------------------|
E:-------------------------------------------------------|

E:-------------------------------------------------------|
B:-------------------------------------------------------|
G:----5-7-8-7-7-10-8-7-----------------------------------|
D:-5--5------8--------8--5-3-5---------------------------|
A:-------------------------------------------------------|
E:-------------------------------------------------------|

E:-------------------------------------------------------|
B:-------------------------------------------------------|
G:----5-7-8-7-7-10-12-10-8-7---7-8--5--------------------|
D:-5--5------8---------------8---------------------------|
A:-------------------------------------------------------|
E:-------------------------------------------------------|

Verse and all of the oh's

E:-------------------------------------------------|*12
B:-------------------------------------------------|
G:-55555-/7-/88888-7-------7-55555-----------------|
D:-55555-/7-/88888-7-88888-7-55555-----------------|
A:-33333-/5-/66666-5-88888-5-33333-----------------|
E:-------------------66666-------------------------|

First solo

E:-------------------------------------------------------|*2
B:-------------------------------------------------------|
G:-------------------------------------------------------|
D:-------------------------------------------------------|
A:-33333-5-6/10-8-5555-6-5-3-1---------------------------|
E:-------------------------------------------------------|

Verse and chorus

E:-------------------------------------------------|*4
B:-------------------------------------------------|
G:-55555-/7-/88888-7-------7-55555-----------------|
D:-55555-/7-/88888-7-88888-7-55555-----------------|
A:-33333-/5-/66666-5-88888-5-33333-----------------|
E:-------------------66666-------------------------|

Second solo

E:---------------------------------------------------------------|
B:-------------------------------------------8-6-8-6-8-6---------|
G:-55555-7-8-7-8-7-5-33333-55555-7-8-7-8-7-5-------------8-7-5---|
D:---------------------------------------------------------------|
A:---------------------------------------------------------------|
E:---------------------------------------------------------------|

verse and chorus

E:-------------------------------------------------|
B:-------------------------------------------------|
G:-55555-/7-/88888-7-------7-55555-----------------|
D:-55555-/7-/88888-7-88888-7-55555-----------------|
A:-33333-/5-/66666-5-88888-5-33333-----------------|
E:-------------------66666-------------------------|
    ****      ****    ****    ****

Repeat until the end of the song

E:-------------------------------------------------|
B:-------------------------------------------------|
G:-55555-/7-/88888-7-------7-55555-----------------|
D:-55555-/7-/88888-7-88888-7-55555-----------------|
A:-33333-/5-/66666-5-88888-5-33333-----------------|
E:-------------------66666-------------------------|

ending

E:-------------------------------------------------------|
B:-------------------------------------------------------|
G:----10-8-7---------------------------------------------|
D:-----------8-5---5555--5-------------------------------|
A:-----------------5555--5-------------------------------|
E:-----------------3333--3-------------------------------|

the casualties f***ing rock i met the band and Jake remembered my name from other shows 
been to

            
            
Suggest correction
Creating personal tab
Creating personal tab
You can edit any tab online and save it as your Personal.

You can edit, replace or remove any tab part or add personal notes – all changes will be seen only by you.

Personal tabs can be accessed anytime from any device, even offline.
Learn more »
Give kudos to tab author, rate the tab!
1 2 3 4 5
comments
print report bad tab
2 comments total.
+1 reply
panzerputney 52 Jun 07, 2008 04:11 AM

wrong

0 reply
fixxmyhead 30 Nov 27, 2009 12:35 PM

everything is correct except the ending it's suppose to end in C5 power chord

guest
You may want to rate the tab now too:
select rating
Wanna post a correction for this tab? Suggest correction