Oops, an error
Loading. Please wait.
We have an official We Are All We Have tab made by UG professional guitarists. Check out the tab »
×
31,576 views 30 this week
1 commentread comment
1 2 3 4 5
x 7
add to favorites
×
Save as Personal and add changes to this tab that will be seen only by you. Learn more ›
×
You can save this tab as Personal to edit and correct it or add notes. All changes will be seen only by you. Learn more »
launch autoscroll
font size
0
reset
how to read this tab
guitar tuner
edit
Autoscroll
slow
fast
+/-
esc
set tempo
stop
Author
Difficulty
Unregistered
[Intro]
e|------------------------------------|
B|--2----4-5---5-5-5-7-5-4-2-0-2------|
G|------------------------------------|
D|------------------------------------|X2
A|------------------------------------|
E|------------------------------------|

[Break]
e|-----------------------------|
B|-----------------------------|
G|-----------------------------|
D|-----------------------------|X2
A|--11-11-11-11-9--7----14--9--|
E|--9--9--9--9--7--5----12--7--|

e|--------------------------------------------------------------------------|
B|--------------------------------------------------------------------------|
G|--------------------------------------------------------------------------|
D|----------------------------------------9-9-9-9-9-9-9-9-------------------|X2
A|--11-11-11-11-11-11-9-9-7-7-7-7-7-7-7-7-7-7-7-7-7-7-7-7-9-9-9-9-9-9-9-9---|
E|--9--9--9--9--9--9--7-7-5-5-5-5-5-5-5-5------------------7-7-7-7-7-77-----|

[Verse/chorus]
e|----------------------------------------------------|
B|----------------------------------------------------|
G|-------------------------------------------------}--|
D|-------------------------------------------------}}-|
A|-11-11-11-11-11-11-11-11-14-14-14-14-14-14-14-14----|
E|-9--9--9--9--9--9--9--9--12-12-12-12-12-12-12-12----|
                                                      x4
e|----------------------------------------------------|
B|----------------------------------------------------|
G|-------------------------------------------------}}-|
D|-------------------------------------------------}--|
A|-7-7-7-7-7-7-7-7-9-9-9-9-9-9-9-9--------------------|
E|-5-5-5-5-5-5-5-5-7-7-7-7-7-7-7-7--------------------|

[4th time for verse]
e|---------------------------------|
B|---------------------------------|
G|---------------------------------|
D|------------------9-----9--------|
A|-7-7-7-7-7-7-7-7--7--9--7--9-----|
E|-5-5-5-5-5-5-5-5-----7-----7-----|

[Break 2]
D[-----------------------------------------|
A[-14-14-14-14-14-14-14-14-7-7-7-7-9-9-9-9-|
E[-12-12-12-12-12-12-12-12-5-5-5-5-7-7-7-7-|

[RIGHT NOW]
D[-----------------------------------------|
A[-14-14-14-14-14-14-14-14-7-7-7-7-9-9-9-9-|
E[-12-12-12-12-12-12-12-12-5-5-5-5-7-7-7-7-|

[Chorus]
[Verse]
[Break 2]
[Chorus]
[Break 2]
[verse]
[verse](wihout guitar/ bass part)

            
            
Suggest correction
Creating personal tab
Creating personal tab
You can edit any tab online and save it as your Personal.

You can edit, replace or remove any tab part or add personal notes – all changes will be seen only by you.

Personal tabs can be accessed anytime from any device, even offline.
Learn more »
comments
print report bad tab
1 comment total.
0 reply
diegomonter 10 Jun 06, 2015 05:31 PM

perfect
holy shit

guest
Wanna post a correction for this tab? Suggest correction