Oops, an error
Loading. Please wait.
We have Chord Pro version of Dont Let Me Down.
It's the closest thing you can get to the original song and it has interactive parts. Check out the tab »
×

Dont Let Me Down tab

version 4
version 4

Whole song

  • There are some differences/a bit more detail and a... Show more
  • Full fingerstyle arrangement by andrew foy.

Interactive

Video

1,069 views 9 this week
no commentswrite comment
1 2 3 4 5
x 3
add to favorites
×
Save as Personal and add changes to this tab that will be seen only by you. Learn more ›
×
You can save this tab as Personal to edit and correct it or add notes. All changes will be seen only by you. Learn more »
launch autoscroll
font size
0
reset
how to read this tab
guitar tuner
edit
Autoscroll
slow
fast
+/-
esc
set tempo
stop
About this tab version
Full fingerstyle arrangement by andrew foy. Was this info helpful? Yes No
Andrew Foy's Arrangement 
https://www.youtube.com/watch?v=zwNxZdIYMx8


[Intro]

e|-<12>-<12>--------<19>-<19>--<19>--<14>-<14>--<14>-<14>h3-<15>-<15>-<14>---------|
B|------------<15>-----------------------------------------------------------------|
G|---------------------------------------------------------------------------------|
D|---------------------------------------------------------------------------------|
A|--3------------------------------------------------------------------------------|
E|-------------------h3--------------------------------0---------------------------|

             o               o                o                       o
e|-<12>-<12>--------<19>-<19>--<19>--<14>-<14>--<14>-<14>h3-<15>-<15>---<14>-------|
B|------------<15>-----------------------------------------------------------------|
G|---------------------------------------------------------------------------------|
D|---------------------------------------------------------------------------------|
A|--3------------------------------------------------------------------------------|
E|-------------------h3--------------------------------0---------------------------|

[Verse]
          o            o                 o            o                o  
e|--0------------------------------------------------------------------------------|
B|--0------------------------------------------------------------------------------|
G|--------0------------0-0-0-------------------------------------------0-------0---|
D|-----2-----2p0-----0--------2/4------0-4-4--4h5-4\2-5-5-4\2-------2----2p0-------|
A|--3--------------------------------5---------------------------3-----------------|
E|------------------3-------------------------0--------------------------------3---|

           o               o            o            o            o
e|---------------------------------------------------------------------------------|
B|---------------------------------------------------------------------------------|
G|--------0-0-0-------------------------------------0------------0-0-0-------------|
D|---2p0---------2/4----0-4-4--4h5-5-5---4\2------2----2p0-----0--------2/4--------|
A|--------------------5-----------------------3-------------------------------5----|
E|-----------------------------0-----------------------------3---------------------|

        o            o            o              o                         o
e|---------------------------------------------------------------------------------|
B|---------------------------------------------------------------------------------|
G|-------------------------------0-------0------0-0-0------------------------------|
D|---0-4-4--4h5-4\2-5-5-4\2----2----2p0-----2p0--------4----0-4-4--4h5-5-5---4\3\1-|
A|---------------------------3----------------------------5------------------------|
E|----------0----------------------------3-------------------------0---------------|


[Chorus]

e|---------------------------------------------------------------------------------|
B|---0h1-0-----0h1-0-----0h1-0------------------------------<12>-----(0)-(0)-------|
G|--0------2----------2--0-----2-0--------7-4-7-4-7-7/9--------------(0)-(0)-------|
D|-----------------------0-----------0----4--------------------------(2)------2----|
A|-3-----------x-----------------x-----5------x-----------------------x---x--------|
E|-------------x---------3-------x------------x----------0--------0---x---x--------|

e|---------------------------------------------------------------------------------|
B|---0h1-0-----0h1-0-----0h1-0----------------------------------------------0h1----|
G|--0------2----------2--0-----2-0--------7-4-7-4-7-7/9---------------------0------|
D|-----------------------0-----------0----4-----------------9-----9--7--5----------|
A|-3-----------x-----------------x-----5------x-------------7-----x---------3------|
E|-------------x---------3-------x------------x----------0-----0--x----------------|

e|--------------------------------------------------------------------3--2--0---3--|
B|-1--0-----1---1h3--3-3-----3/5---------3/5--0--------------(0)-(0)--0--0--0---0--|
G|--------------0-------------------2-2---------2--0h2p0-----(0)-(0)--0-(0)(0)--0--|
D|--------------------------------0-----------------------2--(2)------0------------|
A|-x-----x-----------x----x--------------x--------------------x---x---3---------x--|
E|-x-----x------3----x----x--------------x---------0----------x---x-------------x--|

                              o              o
e|-2--0----3--2--0--------------------0--------------------------------------------|
B|-0--0----0--0--0---3--3-------------3--3-1-0-------(0)----1----------------------|
G|(0)(0)---0-(0)(0)--0--0--0-------2--2--------------(0)---------------------------|
D|---------0---------0--0-----0--0----0----------2-2-(0)-2-------------------------|
A|---------0---------x--x-------------x---------------x----------------------------|
E|---------3---------x--x-------------x------0--------x----------------------------|

 [Postchorus]
   
   o           o                     o          o                 o          o
e|---------------------------------------------------------------------------------|
B|-3/5-5-5-5---3/5-5-5-5-----5/8----------------------0----------------------------|
G|-0------(0)--0------------(0)------7h9-9-9-9--7h9------0-------------------------|
D|-------------------------------------------------------------2--0h2-2-2-2--0h1h2-|
A|---------x-----------------x----x----------x--------------x-------------x--------|
E|-0-------x---0----------0--x----x--0-------x--0-----------x-----0-------x--0-----|

             o           o
e|---------------------------------------------------------------------------------|
B|--------------------------------0------------------------------------------------|
G|----------------------------------0----------------------------------------------|
D|-2-2---------0h2-2-2-2-0h1h2-----------2-----------------------------------------|
A|--------x-x----------x--------------x--------------------------------------------|
E|-----0--x-x--0-------x-0------------x--------------------------------------------|

[Verse]

          o            o                 o            o                o  
e|---------------------------------------------------------------------------------|
B|---------------------------------------------------------------------------------|
G|--------0------------0-0-0-------------------------------------------0-------0---|
D|-----2-----2p0-----0--------2/4------0-4-4--4h5-4\2-5-5-4\2-------2----2p0-------|
A|--3--------------------------------5---------------------------3-----------------|
E|------------------3-------------------------0--------------------------------3---|

           o               o            o            
e|---------------------------------------------------------------------------------|
B|---------------------------------------------------------------------------------|
G|--------0-0-0--------------------------------------------------------------------|
D|---2p0---------2/4----0-4-4--4h5-5-5---4\2---------------------------------------|
A|--------------------5------------------------------------------------------------|
E|-----------------------------0---------------------------------------------------|

 [Chorus]
e|---------------------------------------------------------------------------------|
B|---0h1-0-----0h1-0-----0h1-0------------------------------<12>-----(0)-(0)-------|
G|--0------2----------2--0-----2-0--------7-4-7-4-7-7/9--------------(0)-(0)-------|
D|-----------------------0-----------0----4--------------------------(2)------2----|
A|-3-----------x-----------------x-----5------x-----------------------x---x--------|
E|-------------x---------3-------x------------x----------0--------0---x---x--------|

e|---------------------------------------------------------------------------------|
B|---0h1-0-----0h1-0-----0h1-0----------------------------------------------0h1----|
G|--0------2----------2--0-----2-0--------7-4-7-4-7-7/9---------------------0------|
D|-----------------------0-----------0----4-----------------9-----9--7--5----------|
A|-3-----------x-----------------x-----5------x-------------7-----x---------3------|
E|-------------x---------3-------x------------x----------0-----0--x----------------|

e|--------------------------------------------------------------------3--2--0---3--|
B|-1--0-----1---1h3--3-3-----3/5---------3/5--0--------------(0)-(0)--0--0--0---0--|
G|--------------0-------------------2-2---------2--0h2p0-----(0)-(0)--0-(0)(0)--0--|
D|--------------------------------0-----------------------2--(2)------0------------|
A|-x-----x-----------x----x--------------x--------------------x---x---3---------x--|
E|-x-----x------3----x----x--------------x---------0----------x---x-------------x--|

                              o              o
e|-2--0----3--2--0--------------------0--------------------------------------------|
B|-0--0----0--0--0---3--3-------------3--3-1-0-------(0)----1----------------------|
G|(0)(0)---0-(0)(0)--0--0--0-------2--2--------------(0)---------------------------|
D|---------0---------0--0-----0--0----0----------2-2-(0)-2-------------------------|
A|---------0---------x--x-------------x---------------x----------------------------|
E|---------3---------x--x-------------x------0--------x----------------------------|

[Postchorus]
   
   o           o                     o          o                 o          o
e|---------------------------------------------------------------------------------|
B|-3/5-5-5-5---3/5-5-5-5-----5/8----------------------0----------------------------|
G|-0------(0)--0------------(0)------7h9-9-9-9--7h9------0-------------------------|
D|-------------------------------------------------------------2--0h2-2-2-2--0h1h2-|
A|---------x-----------------x----x----------x--------------x-------------x--------|
E|-0-------x---0----------0--x----x--0-------x--0-----------x-----0-------x--0-----|

               o         o                   o          o                      o
e|---------------------------------------------------------------------------------|
B|--------------------------------0----------3/5-5-5-5--3/5-5-5-5------5/8---------|
G|----------------------------------0--------0------(0)-0-------------(0)------7h9-|
D|-2-2-2-------0h2-2-2-2-0h1h2-----------2-----------------------------------------|
A|---------x-x---------x--------------x--------------x-----------------x----x------|
E|-------0-x-x-0-------x-0------------x------0-------x--0-----------0--x----x--0---|

           o                o          o                    o         o
e|---------------------------------------------------------------------------------|
B|--------------0-----------------------------------------------------------0------|
G|--9-9-9--7h9-----0----------------------------------------------------------0----|
D|-----------------------2--0h2-2-2-2--0h1h2-2-2-2----------0h2-2-2-2-0h1h2-------2|
A|------x-------------x-------------x------------------x-x----------x-----------x--|
E|------x--0----------x-----0-------x--0------------0--x-x--0-------x-0---------x--|


 [Bridge]
         o  o
e|-----------------------3/5-5-5--7--3---2-2-2-2-0-2-3----0---0h3------------------|
B|-0h1----------------3--0-------(0)-----3-3-3-3-0-3-3----0-3-0--------------------|
G|-0------------------0------------------2------------------2----------------------|
D|-2-------------------------------------0-----------------------------------------|
A|-3------------x--x-----x--------x------------x--------------x----x---------------|
E|--------------x--x-----x--------x------------x--------0-----x----x---------------|

        o  o
e|-----------------------3/5-5-5--7--3---2-2-2-2-0-2-3----0---0h3------------------|
B|-0h1----------------3--0-------(0)-----3-3-3-3-0-3-3----0-3-0--------------------|
G|-0------------------0------------------2------------------2----------------------|
D|-2-------------------------------------0-----------------------------------------|
A|-3------------x--x-----x--------x------------x--------------x----x---------------|
E|--------------x--x-----x--------x------------x--------0-----x----x---------------|

[Chorus]
e|---------------------------------------------------------------------------------|
B|---0h1-0-----0h1-0-----0h1-0------------------------------<12>-----0-------------|
G|--0------2----------2--0-----2-0--------7-4-7-4-7-7/9----------------------------|
D|-----------------------0-----------0----4-----------------------------------(2)--|
A|-3-----------------------------------5---------------------------------(3)-------|
E|-----------------------3-------------------------------0--------0----------------|

e|---------------------------------------------------------------------------------|
B|---0h1-0-----0h1-0-----0h1-0----------------------------------------------0h1----|
G|--0------2----------2--0-----2-0--------7-4-7-4-7-7/9---------------------0------|
D|-----------------------0-----------0----4-----------------9-----9--7--5----------|
A|-3-----------------------------------5--------------------7---------------3------|
E|-----------------------3-------------------------------0-----0-------------------|

e|--------------------------------------------------------------------3--2--0---3--|
B|-1--0-----1---1h3--3-3-----3/5---------3/5--0--------------(0)-(0)--0--0--0---0--|
G|--------------0-------------------2-2---------2--0h2p0-----(0)-(0)--0-(0)(0)--0--|
D|--------------------------------0-----------------------2--(2)------0------------|
A|-x-----x-----------x----x--------------x--------------------x---x---3---------x--|
E|-x-----x------3----x----x--------------x---------0----------x---x-------------x--|

                              o              o 
e|-2--0----3--2--0--------------------3-3-3--3/5--3-----2-3--0---------------------|
B|-0--0----0--0--0---3--3-------------0-0-0--0----0-----0-0--0---------------------|
G|(0)(0)---0-(0)(0)--0--0--0-------2--0-0-0----------------------------------------|
D|---------0---------0--0-----0--0----0-0-0----------------------------------------|
A|---------0---------x--x-------------x-----------------x----x---------------------|
E|---------3---------x--x-------------x------0-------0--x----x---------------------|

 [Outro]
        
         o  o                                          o
e|-----------------------3/5-5-5--7--3--5--------5-----3/5--3-----2-3--0----------|
B|-0h1----------(3)---3--0-------(0)----7--------7----------------0-0--0----------|
G|-0------------(0)---0-----------------6--(6)---6--------------------------------|
D|-2------------------------------------0------0-0--------------------------------|
A|-3-----------x---x-----x--------x--------------x-x--------------x----x----------|
E|-------------x---x-----x--------x--------------x-x---0-------0--x----x----------|

        o  o                                          o
e|-----------------------3/5-5-5--7--3--5--------5----2/3-2-----0-----------------|
B|-0h1----------(3)---3--0-------(0)----7--------7--------------0--3-----0----0---|
G|-0------------(0)---0-----------------6--(6)---6-----------------0-----0----0---|
D|-2------------------------------------0------0-0------------------------------2-|
A|-3-----------x---x-----x--------x--------------x-x------------x-----3----3--x-x-|
E|-------------x---x-----x--------x--------------x-x--0------0--x-------------x-x-|

                                                         o   o 
e|-----3/5-5-5--7--3---2-2-2-2-0-2-3----0---0h3----------------------------3/5-5-5|
B|-----0-------(0)-----3-3-3-3-0-3-3----0-3-0------0h1------------(3)---3---------|
G|---------------------2------------------2--------0--------------(0)---0---------|
D|-0-------------------0---------------------------2------------------------------|
A|-----x--------x------------x--------------x----x-3-------------x----x----x------|
E|---3-x--------x------------x--------0-----x----x---------------x----x----x------|

e|-7--3--2-2-2-2-0-2-3----0---0h3-------------------------------------------------|
B|(0)----3-3-3-3-0-3-3----0-3-0--------1----------------<12>----------------<12>--|
G|-------2------------------2----------0---<14>-<14>-<14>------<14>-<14>-<14>-----|
D|-------0-----------------------------2---------------------0--------------------|
A|-x-----------x--------------x-----x--3------------------------------------------|
E|-x-----------x--------0-----x-----x---------------------------------------------|

e|--------------------------------------------------------------------------------|
B|-<12>-----------------------------------<12>-----------------<12>--<12>---------|
G|-------<12>---------------<14>-<14>-<14>-------<14>-<14>-<14>------------<12>---|
D|-------------<14>----------------------------0----------------------------------|
A|--------------------3-----------------------------------------------------------|
E|--0---------------------3-------------------------------------------0-----------|

e|--------------------------------------------------------------------------------|
B|--------------------------------------------------------------------------------|
G|--------------------------------------------------------------------------------|
D|-<14>---------------------------------------------------------------------------|
A|-------3~-----------------------------------------------------------------------|
E|--------------------------------------------------------------------------------|

************************************

| x   Dead note
| (n) Ghost note
| h   Hammer-on
| p   Pull-off
| /   Slide up
| \   Slide down
| ~   Vibrato
|<->  Harmonic
| o   Wrist thump

************************************

            
            
Suggest correction
Creating personal tab
Creating personal tab
You can edit any tab online and save it as your Personal.

You can edit, replace or remove any tab part or add personal notes – all changes will be seen only by you.

Personal tabs can be accessed anytime from any device, even offline.
Learn more »
Give kudos to tab author, rate the tab!
1 2 3 4 5
comments
print report bad tab
guest
You may want to rate the tab now too:
select rating
Wanna post a correction for this tab? Suggest correction