Oops, an error
Loading. Please wait.

Something Just Like This tab

version 2
version 2

Whole song

  • Fingerstyle Arrangement for solo guitarist.
  • Based in their show at the BRIT Awards.
  • A fingerstyle tab arranged by myself.
  • Fingerstyle arrangement by Andrew Foy.

Interactive

Video

  • Easy to follow, high quality video lesson.
7,294 views 123 this week
no commentswrite comment
1 2 3 4 5
x 7
add to favorites
×
Save as Personal and add changes to this tab that will be seen only by you. Learn more ›
×
You can save this tab as Personal to edit and correct it or add notes. All changes will be seen only by you. Learn more »
launch autoscroll
font size
0
reset
how to read this tab
guitar tuner
edit
Autoscroll
slow
fast
+/-
esc
set tempo
stop
Author
Difficulty
[Intro]
Listen to the timing and just play a couple of times
e|---------------------------------------------------------------------------|
B|---------10----------10-------10------10-----------------------------------|
G|7----7-7-----7-----------7-------7-----------------------------------------|
D|---------------------------------------------------------------------------|
A|---------------------------------------------------------------------------|
E|---------------------------------------------------------------------------|

Just before the chorus where Chris sings doo doo doo ,you can (if you want to)do this:
[Verse]
e|---------------------------------------------------------------------------|
B|---------------------------------------------------------------------------|
G|---------------------------------------------------------------------------|
D|-0h2h4--0h2h4~---0h2h4---0h2h4-2-2-0---0h2h4---0h2h4/5\4---0h2h4---2-2-0---|
A|---------------------------------------------------------------------------|
E|---------------------------------------------------------------------------|

e|---------------------------------------------------------------------------|
B|---------------------------------------------------------------------------|
G|---------------------------------------------------------------------------|
D|---------------------------------------------------------------------------|
A|---------------------------------------------------------------------------|
E|---------------------------------------------------------------------------|

[Chorus]
e|---------------------------------------------------------------------------|
B|4---4--66---6--77---6-7---11--11--7--6--4----------------------------------|
G|0---0--00---0--00---0-0---0---0---0--0--0----------------------------------|}Just play a couple of times
D|---------------------------------------------------------------------------|
A|---------------------------------------------------------------------------|
E|---------------------------------------------------------------------------|

e|---------------------------------------------------------------------------|
B|---------------------------------------------------------------------------|
G|---------------------------------------------------------------------------|
D|---------------------------------------------------------------------------|
A|---------------------------------------------------------------------------|
E|---------------------------------------------------------------------------|

[Outro]
e|----------------------------------------------14---14----------------------|
B|--12-------12-14-14----14---15-15----14--15-----------------15--14---12----|
G|---------------------------------------------------------------------------|  X4
D|---------------------------------------------------------------------------|
A|---------------------------------------------------------------------------|
E|---------------------------------------------------------------------------|

e|---------------------------------------------------------------------------|
B|12-12-12-10---12h10---12h10--12h10--12-12-10--12h10-------14----15---------|
G|-----------11------11------11-----11--------11-----11----------------------|
D|---------------------------------------------------------------------------|
A|---------------------------------------------------------------------------|
E|---------------------------------------------------------------------------|



************************************

| h  Hammer-on
| /  Slide up
| \  Slide down
| ~  Vibrato

************************************

            
            
Suggest correction
Creating personal tab
Creating personal tab
You can edit any tab online and save it as your Personal.

You can edit, replace or remove any tab part or add personal notes – all changes will be seen only by you.

Personal tabs can be accessed anytime from any device, even offline.
Learn more »
comments
print report bad tab
guest
You may want to rate the tab now too:
select rating
Wanna post a correction for this tab? Suggest correction