Oops, an error
Loading. Please wait.

Something Just Like This tab

version 6
version 6

Whole song

  • Fingerstyle Arrangement for solo guitarist.
  • Based in their show at the BRIT Awards.
  • A fingerstyle tab arranged by myself.
  • Fingerstyle arrangement by Andrew Foy.

Interactive

Video

  • Easy to follow, high quality video lesson.
4,048 views 99 this week
5 commentsread comments
1 2 3 4 5
x 5
add to favorites
×
Save as Personal and add changes to this tab that will be seen only by you. Learn more ›
×
You can save this tab as Personal to edit and correct it or add notes. All changes will be seen only by you. Learn more »
launch autoscroll
font size
0
reset
how to read this tab
guitar tuner
edit
Autoscroll
slow
fast
+/-
esc
set tempo
stop
About this tab version
Fingerstyle arrangement by Andrew Foy. Was this info helpful? Yes No
https://www.youtube.com/watch?v=A1greUonFAk

[Intro]

e|-----------------------------------------------------------------------------|
B|-------------<20>----------------<20>------------------<20>------------------|
G|-----------------------------------------------------------------------------|
D|--<22>-<22>--------<22>-----<22>-------<22>-<22>-<22>---------<22>-<22>------|
A|---8---------------------10-------------8---------------10-------------------|
E|-----------------------------------------------------------------------------|

e|-----------------------------------------------------------------------------|
B|-------------<20>----------------<20>----------------------------------------|
G|-----------------------------------------------------------------------------|
D|--<22>-<22>--------<22>-----<22>-------<22>-<22>-----------------------------|
A|---8---------------------10-------------8------------------------------------|
E|-----------------------------------------------------------------------------|

[Verse]

e|-------------------------------------------------------------------0--0------|
B|-1-1-1-1--0--------1-1-1-1h3-1---------1-1-1-1-0--------1-1-1-1h3-----1----1-|
G|-----0-----------------0---------0---------0----------------0---------0------|
D|--------------3-3----------------2--2--------------3-3----------------2-2----|
A|---------------------------------0------------------------------------0------|
E|-----3--------1--------3-------------------3-------1--------3----------------|

e|-0-------0--1---------------------0-0----------------0-----------------------|
B|----3--3----1-------------3-3--3----1--1--------1-1-----3-1-1-1h3-3--1-1-3-1-|
G|------------2---------------0-------0----0---0--0-------2------------0-----0-|
D|---------------(3)-------------------------2------------3------------------2-|
A|--------------------x--x-------x----0--------------------------------------0-|
E|----3-------1-------x--x----3--x----------------3-------1------------3-------|

[Prechorus]

e|--------0--3-3-3-3/5-----5-5--3-3-1--0--------0-0-3-3-------------1-0--0-----|
B|-1-1-1------------------------0---------1-1-1-1-----1--3-3-3-3-1-------1-----|
G|-----0------------------------0---------------0-----2------------------2-----|
D|-----------------3-----3-----------------------------------------------2-2---|
A|-------------------------------------0---------------------------------0-----|
E|-----3------------------------3---------------3-----1----------3-------------|

e|-----0-3-3-3/5----5-5--3-3-1p0-------------0-0-3---3-------------1-0--0------|
B|--1--------------------0------------1-1-1----------1--3-3-3-3-1-------1------|
G|-----------------------0---------------------------2------------------2------|
D|----------------3-----------------------------------------------------2------|
A|---------------------------------0------------------------------------0------|
E|-------3---------------3-------------------3-------1----------3--------------|

[Bridge]

e|---0------------------------0------0------------------------------------0----|
B|-1---3-3-3-3------1-----1h3----1h3----------------------5--3-1------1h3------|
G|------------------2------------------------------5-5h7-----0------2----------|
D|---------------------3--------------------3/7--------------0----3------------|
A|----------------------------------------0-----0------------------------------|
E|-------3-------1---------------3---------------------------3-----------------|

e|-----0-----------------------------------------0------0----------------------|
B|-1h3-----------------5-----3-3-3-----1-----1h3----1h3--------------------5---|
G|-------------------5---7---0---------------------------------------5-5h7-----|
D|-----------3/7-------------0-------3---3--------------------3/7--------------|
A|---------0-----0------------------------------------------0-----0------------|
E|-3-------------------------3----------------------3--------------------------|

e|--------------------0-------0------------------------------------------------|
B|-3--1-----------1h3----1h3---------------------------------------------------|
G|-0-------2-------------------------------------------------------------------|
D|-0-----3---------------------------------------------------------------------|
A|-----------------------------------------------------------------------------|
E|-3---------------------3-----------------------------------------------------|


[Chorus]
                          o                          o 
e|-----------------------------------------------------------------------------|
B|------------5--------0--1--1--1--3-----------<12>--5-------5--5--5--<12>-----|
G|----------5---7-7-7-----2--2--2--4--5--------<12>--5-------5--5--5--<12>-----|
D|---3/7----------5-5-----3--3--3--5--5--------------7--(7)--7--7--------------|
A|-0-----0----------x--------x-----------x-----------0--(0)--x--0----------x---|
E|------------------x-----1--x--1--3--3--x--0----------------x-------------x---|

       o                                                   o
e|-----------------------------------------------------------------------------|
B|--0--1--1--1--3-----------3---3/5--------5--5---------0--1--1--1--3----------|
G|--0--2--2--2--4--5--------4---0----(0)---5-----7-7-7-----2--2--2--4--5-------|
D|-----3--3--3--5--5-----------------(0)-----------5-5-----3--3--3--5--5-------|
A|--------x-----------x---------0----------x--0------x--------x-----------x----|
E|-----1--x--1--3--3--x--3-----------------x---------x-----1--x--1--3--3--x----|

            o                             o
e|-----------------------------------------------------------------------------|
B|----<12>--5------5--5--5--<12>-------0--1--1--1--3----------3--3/5--------5--|
G|----<12>--5------5--5--5--<12>-------0--2--2--2--4--5-------4--0-----(0)--5--|
D|----------7-(7)--7--7-------------------3--3--3--5--5----------------(0)-----|
A|----------0-(0)--x--0------------x---------x-----------x-------0----------x--|
E|-0---------------x---------------x------1--x--1--3--3--x--3---------------x--|

e|-----------------------------------------------------------------------------|
B|------0--0--0----------------------------------------------------------------|
G|-5-5--0--0-------------------------------------------------------------------|
D|-----------------------------------------------------------------------------|
A|-0-------x-------------------------------------------------------------------|
E|---------x-------------------------------------------------------------------|

[Verse]

e|------------------------------------------------------0--0-------------------|
B|------1-1-1-1h3-1---------1-1-1-1-0--------1-1-1-1h3-----1----1--------------|
G|----------0---------0---------0----------------0---------0-------------------|
D|--3-3---------------2--2--------------3-3----------------2-2-----------------|
A|--------------------0------------------------------------0-------------------|
E|--1-------3-------------------3-------1--------3-----------------------------|

e|-0-------0--1---------------------0-0----------------0-----------------------|
B|----3--3----1-------------3-3--3----1--1--------1-1-----3-1-1-1h3-3--1-1-3-1-|
G|------------2---------------0-------0----0---0--0-------2------------0-----0-|
D|---------------(3)-------------------------2------------3------------------2-|
A|--------------------x--x-------x----0--------------------------------------0-|
E|----3-------1-------x--x----3--x----------------3-------1------------3-------|

[Prechorus]

e|--------0--3-3-3-3/5-----5-5--3-3-1--0--------0-0-3-3-------------1-0--0-----|
B|-1-1-1------------------------0---------1-1-1-1-----1--3-3-3-3-1-------1-----|
G|-----0------------------------0---------------0-----2------------------2-----|
D|-----------------3-----3-----------------------------------------------2-2---|
A|-------------------------------------0---------------------------------0-----|
E|-----3------------------------3---------------3-----1----------3-------------|

e|-----0-3-3-3/5----5-5--3-3-1p0-------------0-0-3---3-------------1-0--0------|
B|--1--------------------0------------1-1-1----------1--3-3-3-3-1-------1------|
G|-----------------------0---------------------------2------------------2------|
D|----------------3-----------------------------------------------------2------|
A|---------------------------------0------------------------------------0------|
E|-------3---------------3-------------------3-------1----------3--------------|


[Chorus]
                          o                          o 
e|----0------------------------------------------------------------------------|
B|-1------3--3--3--3------1--1--1--3-----------<12>--5-------5--5--5--<12>-----|
G|------------------------2--2--2--4--5--------<12>--5-------5--5--5--<12>-----|
D|------------------------3--3--3--5--5--------------7--(7)--7--7--------------|
A|---------------------------x-----------x-----------0--(0)--x--0----------x---|
E|-----------3------------1--x--1--3--3--x--0----------------x-------------x---|

       o                           o                     o
e|-----------------------------------------------------------------------------|
B|--0--1--1--1--3-----------<12>---5-----5--5---------0--1--1--1--3------------|
G|--0--2--2--2--4--5--------<12>---5-----5-----7-7-7-----2--2--2--4--5---------|
D|-----3--3--3--5--5---------------7-(7)---------5-5-----3--3--3--5--5---------|
A|--------x-----------x------------0-(0)-x--0------x--------x-----------x------|
E|-----1--x--1--3--3--x--0---------------x---------x-----1--x--1--3--3--x------|

            o                           o        
e|-----------------------------------------------------------------------------|
B|----<12>--5------5--5--5--<12>----0---1--1--1--3----------3-3/5--------5-----|
G|----<12>--5------5--5--5--<12>----0---2--2--2--4--5-------4-0-----(0)--5--5--|
D|----------7-(7)--7--7-----------------3--3--3--5--5---------------(0)--------|
A|----------0-(0)--x--0----------x---------x-----------x------0----------x--0--|
E|-0---------------x-------------x------1--x--1--3--3--x--3--------------x-----|


e|-----------------------------------------------------------------------------|
B|-5---------0-----------------------------------------------------------------|
G|----7-7-7--------------------------------------------------------------------|
D|------5-5--------------------------------------------------------------------|
A|--------x--------------------------------------------------------------------|
E|--------x--------------------------------------------------------------------|

[Bridge]

e|------------<12>---------<12>-------------0----------------------<12>--------|
B|-1--<13>h3--------<13>h3--------------1h3----3--1--------<13>h3-------<13>h3-|
G|-2-------------------------------------------0--------2----------------------|
D|-3---------------------------------2---------0------3------------------------|
A|---------------------------------0-------------------------------------------|
E|-1-----------------3-------------------------3-------------------------3-----|

e|--<12>h1p0--------0-----------------------------<12>---------<12>------------|
B|----------------1----3-3-3-3-------1-----<13>h3-------<13>h3-------------1h3-|
G|----------------0------0-----------2-----------------------------------------|
D|--------------------------------3----(3)------------------------------2------|
A|-------------0------------------------------------------------------0--------|
E|-----------------------3--------------------------------3--------------------|

e|-0----------------------<12>---------<12>h1p0--------------------------------|
B|----3--1--------<13>h3--------<13>h3-----------------1-0-0-0-0---------------|
G|----0--------2-------------------------------------2-----0-------------------|
D|----0------3-------------------------------------2---------------------------|
A|-----------------------------------------------0-----------------------------|
E|----3--------------------------3-------------------------3-------------------|

[Prechorus]

e|--------------------0-0-----0-0------0--------------1-0-0--------------------|
B|--1-----1-1-1-1h3-----1----------3-3----3-1-1-1-1-1-----1----1-0-0-0-0h1-----|
G|--2---------0---------2----------0------2---------0-----2--------0---------2-|
D|--3--3----------------2--2--------------3---------------2-2--------------3---|
A|----------------------0---------------------------------0--------------------|
E|--1---------3--------------------3----------------3--------------3-----------|

e|-------------0--0-----0-0-----0----------------1-0-0----0--------------------|
B|-1-1h3--3--3----1---------3-3----3--1-1-1-1-1------1--1----3-3-3-3-1---------|
G|--------0-------2---------0------2----------0------2---------------2---------|
D|----------------2--2-------------3-----------------2-------------------------|
A|----------------0----------------------------------0-------3-----------------|
E|--------3-----------------3------1----------3----------------------1-1-1-1-1-|

e|----------------------------------------------------------------------------|
B|-3------5----------0-----1------------3-------5------5----------------------|
G|-4------5----------0-----2------------4-------5----5---7-7-7----------------|
D|--------7----------0-----3--------------------7----------5-5----------------|
A|--------0-0-0-0-0-----------------------------0-0----------x----------------|
E|-3-3-0-------------3-3-0-1---1-1-1-1--3-3-0----------------x----------------|

[Chorus]
                o                          o 
e|----------------------------------------------------------------------------|
B|-----------0--1--1--1--3-----------<12>--5-------5--5--5--<12>--------------|
G|--------------2--2--2--4--5--------<12>--5-------5--5--5--<12>--------------|
D|--------------3--3--3--5--5--------------7--(7)--7--7-----------------------|
A|-----------------x-----------x-----------0--(0)--x--0----------x------------|
E|--------------1--x--1--3--3--x--0----------------x-------------x------------|

       o                                                   o
e|-----------------------------------------------------------------------------|
B|--0--1--1--1--3-----------3---3/5--------5--5---------0--1--1--1--3----------|
G|--0--2--2--2--4--5--------4---0----(0)---5-----7-7-7-----2--2--2--4--5-------|
D|-----3--3--3--5--5-----------------(0)-----------5-5-----3--3--3--5--5-------|
A|--------x-----------x---------0----------x--0------x--------x-----------x----|
E|-----1--x--1--3--3--x--3-----------------x---------x-----1--x--1--3--3--x----|

            o                             o
e|-----------------------------------------------------------------------------|
B|----<12>--5------5--5--5--<12>-------0--1--1--1--3----------3--3/5--------5--|
G|----<12>--5------5--5--5--<12>-------0--2--2--2--4--5-------4--0-----(0)--5--|
D|----------7-(7)--7--7-------------------3--3--3--5--5----------------(0)-----|
A|----------0-(0)--x--0------------x---------x-----------x-------0----------x--|
E|-0---------------x---------------x------1--x--1--3--3--x--3---------------x--|

e|-----------------------------------------------------------------------------|
B|------0--0--0----------------------------------------------------------------|
G|-5-5--0--0-------------------------------------------------------------------|
D|-----------------------------------------------------------------------------|
A|-0-------x-------------------------------------------------------------------|
E|---------x-------------------------------------------------------------------|

[Outro]

e|---------------------0---0--0--0--1---1--1----------------------0------0-----|
B|-1---1--1--3---3--3--1---1--1--1--1---1--1--1---1--1--3---3--3--1---1-----3--|
G|-2---2--2--4---4--4--0---0--0--0------------2---2--2--4---4--4--0---0--------|
D|-3---3--3--5---5--5-------------------------3---3--3--5---5--5---------------|
A|---------------------0---0--0--0--------------------------------0---0--------|
E|-1---1--1--3---3--3---------------3---3--3--1---1--1--3---3--3---------------|

e|-----------------------------------------------------------------------------|
B|--3--3-3-------1-------------------------------------------------------------|
G|--0----2-------2-------------------------------------------------------------|
D|---------------3-------------------------------------------------------------|
A|-----------------------------------------------------------------------------|
E|--3--------1-----------------------------------------------------------------|



************************************

| x   Dead note
| (n) Ghost note
| h   Hammer-on
| p   Pull-off
| /   Slide up
| \   Slide down
| o   Wrist thump
|<->  Harmonic

************************************

            
            
Suggest correction
Creating personal tab
Creating personal tab
You can edit any tab online and save it as your Personal.

You can edit, replace or remove any tab part or add personal notes – all changes will be seen only by you.

Personal tabs can be accessed anytime from any device, even offline.
Learn more »
comments
print report bad tab
5 comments total. Showing first comments.
+1 reply
mk2781 24 Apr 08, 2017 09:59 AM

thank you so much!!

0 reply
mk2781 24 Apr 08, 2017 10:08 AM

omg this is soo difficult!!!!

0 reply
mabanabanal 10 Apr 20, 2017 08:32 AM

didn't like this contribution

guest
You may want to rate the tab now too:
select rating
Wanna post a correction for this tab? Suggest correction