Oops, an error
Loading. Please wait.

Block Rockin Beats bass

version 1
version 1

Whole song

Interactive

5,943 views 1 this week
3 commentsread comments
1 2 3 4 5
x 6
add to favorites
×
Save as Personal and add changes to this tab that will be seen only by you. Learn more ›
×
You can save this tab as Personal to edit and correct it or add notes. All changes will be seen only by you. Learn more »
launch autoscroll
font size
0
reset
guitar tuner
edit
Autoscroll
slow
fast
+/-
esc
set tempo
stop
Block Rockin' Beats by The Chemical Brothers.

This is the correct way to play it:

G|-------------------------------5----------------------------------------|
D|-------5-----7----5----7------------------------------------------------|
A|----0----0-----0----0------00-------------------------------------------|
E|------------------------------------------------------------------------|

When it slows down, I believe that it goes


G|-----------------------------5------------------------------------------|
D|-------5-----7----------7------(7)---------------------------------------|
A|------------------------------------------------------------------------|
E|------------------------------------------------------------------------|

Tabbed by nihilism.
http://vertexzero.net

            
            
Suggest correction
Creating personal tab
Creating personal tab
You can edit any tab online and save it as your Personal.

You can edit, replace or remove any tab part or add personal notes – all changes will be seen only by you.

Personal tabs can be accessed anytime from any device, even offline.
Learn more »
comments
print report bad tab
3 comments total.
0 reply
Tom widdows 10 Dec 05, 2002 07:00 PM

G|-------3-----5----3----5-------8----------------------------------------|
D|------------------------------------------------------------------------|
A|----3----3-----3----3------33-------------------------------------------|
E|------------------------------------------------------------------------|

This is the actual way to play it

when it steps up it goes like this

G|-------5-----7----5----7-------10----------------------------------------|
D|------------------------------------------------------------------------|
A|----5----5-----5----5------55-------------------------------------------|
E|------------------------------------------------------------------------|

+1 reply
guitarman4235 35 Jul 24, 2006 09:09 PM

This is off by quite a bit. Needs some real work. Everything here is pretty much incorrect.

0 reply
MATTTHEMOP 210 Jul 25, 2006 02:53 PM

doesnt sound right. and u should include the key change.

guest
Wanna post a correction for this tab? Suggest correction