Oops, an error
Loading. Please wait.

Where Do I Begin intro tab

version 1
version 1

Intro

Whole song

4,085 views 1 this week
no commentswrite comment
1 2 3 4 5
1 last vote to show rating
add to favorites
×
Save as Personal and add changes to this tab that will be seen only by you. Learn more ›
×
You can save this tab as Personal to edit and correct it or add notes. All changes will be seen only by you. Learn more »
launch autoscroll
font size
0
reset
how to read this tab
guitar tuner
edit
Autoscroll
slow
fast
+/-
esc
set tempo
stop
Author
    Artist: The chemical Brothers

    Track: Where do I begin

    Album: Dig your own hole

   ---(Standard tuning)---


    e|--------------------------------------------------------------------|
    B|--------------------------------------------------------------------|
    G|-----0--------------------------------------------------------------|
    D|-----0------------7--------------7----------------------------------|
    A|-----0-------0--------7-----9----------7-------9-------5------------|
    E|--------------------------------------------------------------------|

    e|---------------------------------------------------------------------|
    B|---------------------------------------------------------------------|
    G|---------------------------------------------------------------------|
    D|------------------------7--------------------------------------------|
    A|-----5--------9------------------7---------9--------0----------------|
    E|---------------------------------------------------------------------|

  (repeat but with out the three open strings at the start and also count the last open 
on the second set of tabs to be the first open string for the first set of tabs,

        --------------7------------------|
E.G  -- 9------0------------7------9-----|


Thats the song...it's quick easy to learn and it sounds peach !

Enjoy. :)

            
            
Suggest correction
Creating personal tab
Creating personal tab
You can edit any tab online and save it as your Personal.

You can edit, replace or remove any tab part or add personal notes – all changes will be seen only by you.

Personal tabs can be accessed anytime from any device, even offline.
Learn more »
Give kudos to tab author, rate the tab!
1 2 3 4 5
comments
print report bad tab
guest
You may want to rate the tab now too:
select rating
Wanna post a correction for this tab? Suggest correction