Oops, an error
Loading. Please wait.

Under The Milky Way bass

version 1
version 1

Whole song

Interactive

12,510 views 12 this week
no commentswrite comment
1 2 3 4 5
x 11
add to favorites
×
Save as Personal and add changes to this tab that will be seen only by you. Learn more ›
×
You can save this tab as Personal to edit and correct it or add notes. All changes will be seen only by you. Learn more »
launch autoscroll
font size
0
reset
guitar tuner
edit
Autoscroll
slow
fast
+/-
esc
set tempo
stop
Author
Artist: The Church
Title: Under the Milky Way
Tabbed by chipstar
Please rate

0:41  Lower the curtain down in Memphis                    (4X)
G|---------------------------------------------------------(2)-|
D|--7777-44444444-333-222222--7777-44444444-333-222222-(25)----|
A|-------------------------------------------------------------|
E|-------------------------------------------------------------|

1:10  I wish I knew what you were looking for...           (2X)
G|-------------------------------------------------------------|
D|--5555555555--3333333333-------------------------------------|
A|-------------------------------------------------------------|
E|-------------------------------------------------------------|

1:25  And its something quite peculiar...                  (4X)
G|---------------------------------------------------------(2)-|
D|--7777-44444444-333-222222--7777-44444444-333-222222-(25)----|
A|-------------------------------------------------------------|
E|-------------------------------------------------------------|

1:52  I wish I knew what you were looking for...           (3X)
G|-------------------------------------------------------------|
D|--5555555555--3333333333-------------------------------------|
A|-------------------------------------------------------------|
E|-------------------------------------------------------------|

2:20  Bagpipe Solo
G|-------------------------------------------------------------|
D|--------5-555555------------------5-555555-------------------|
A|--3333----------------------3333-----------------------------|
E|------------------5555555-------------------5555555----------|


G|-------------------------------------------------------------|
D|--------5-555555------------------5-555555--7777777----------|
A|--3333----------------------3333-----------------------------|
E|------------------5555555------------------------------------|

2:50  And its something quite peculiar...                  (4X)
G|---------------------------------------------------------(2)-|
D|--7777-44444444-333-222222--7777-44444444-333-222222-(25)----|
A|-------------------------------------------------------------|
E|-------------------------------------------------------------|

3:18  I wish I knew what you were looking for...           (4X)
G|-------------------------------------------------------------|
D|--5555555555--3333333333--(33)--(55)--(77)-------------------|
A|-------------------------------------------------------------|
E|-------------------------------------------------------------|

3:45  Fade out with this during jam
G|---------------------------------------------------------(2)-|
D|--7777-44444444-333-222222--7777-44444444-333-222222-(25)----|
A|-------------------------------------------------------------|
E|-------------------------------------------------------------|

Last repetition or alternate ( )

            
            
Suggest correction
Creating personal tab
Creating personal tab
You can edit any tab online and save it as your Personal.

You can edit, replace or remove any tab part or add personal notes – all changes will be seen only by you.

Personal tabs can be accessed anytime from any device, even offline.
Learn more »
comments
print report bad tab
guest
You may want to rate the tab now too:
select rating
Wanna post a correction for this tab? Suggest correction