Oops, an error
Loading. Please wait.

If I Didnt Know Better tab

2,635 views 6 this week
no commentswrite comment
1 2 3 4 5
x 6
add to favorites
×
Save as Personal and add changes to this tab that will be seen only by you. Learn more ›
×
You can save this tab as Personal to edit and correct it or add notes. All changes will be seen only by you. Learn more »
launch autoscroll
font size
0
reset
how to read this tab
guitar tuner
edit
Autoscroll
slow
fast
+/-
esc
set tempo
stop
Standard Tuning
Capo 2

     Am
E|--------------0--------------------0--3--|
A|---0--------------------0----------------|
D|------(2)--2----(2)--2-----(2)--2--------|
G|------(2)--2----(2)--2-----(2)--2--------|
B|------(1)--0----(1)--0-----(1)--0--------|
e|-----------------------------------------|
     E
E|--------------0--------------------0--3--|
A|---2--(2)--2----(2)--2--2--(2)--2--------|
D|------(2)--2----(2)--2-----(2)--2--------|
G|------(1)--0----(1)--0-----(1)--0--------|
B|-----------------------------------------|
e|-----------------------------------------|

Verse:
   Am
If I didn't know better
    Am
I'd hang my hat right there
   E
If I didn't know better
    Am
I'd follow you up the stairs

Am
Stop saying those sweet things
    Am
You know I like to hear
    E
The horns are blowing louder
    Am
The bailiff's drawing near

Chorus:
Dm       Am
Why do I keep drinking?
Dm         Am
Wasting my time on you
Dm          E
If I didn't know better
             Am
But damnit I do

Verse:
          Am
There's a hole in what you're saying
Am
I can plainly see
             E
You've got a lover that's waiting
    Am
But baby you're right here with me

        Am
Oh, you might as well be the devil
Am
Keeping me out past three
           E
You're the one with that apple
   Am
So baby you can't blame me

Chorus:
Dm        Am
Why don't you keep drinking?
Dm          Am
Give me one night with you
   Dm            E
If I didn't know better
             Am
But damnit I do

Outro: (Intro Am)
You know that I do
Baby you're right here with me
Baby you know I do

            
            
Suggest correction
Creating personal tab
Creating personal tab
You can edit any tab online and save it as your Personal.

You can edit, replace or remove any tab part or add personal notes – all changes will be seen only by you.

Personal tabs can be accessed anytime from any device, even offline.
Learn more »
comments
print report bad tab
guest
You may want to rate the tab now too:
select rating
Wanna post a correction for this tab? Suggest correction