Oops, an error
Loading. Please wait.

Captain Lariat bass

982 views 6 this week
2 commentsread comments
1 2 3 4 5
x 5
add to favorites
×
Save as Personal and add changes to this tab that will be seen only by you. Learn more ›
×
You can save this tab as Personal to edit and correct it or add notes. All changes will be seen only by you. Learn more »
launch autoscroll
font size
0
reset
guitar tuner
edit
Autoscroll
slow
fast
+/-
esc
set tempo
stop
The Claypool Lennon Delirium - Captain Lariat bass tab


Main riff
G|---------------------------------------------------------------------------|
D|--11-12---0--0-11-12--0--0-11-12--0--0-11-12--0--0-------------------------|
A|---------------------------------------------------------------------------|
E|---------------------------------------------------------------------------|

In some points Les plays a C-chord in the groove

G|----------------------------------9----------------------------------------|
D|--11-12---0--0-11-12--0--0-11-12--10----11-12--0--0------------------------|
A|---------------------------------------------------------------------------|
E|---------------------------------------------------------------------------| 

And just before singing starts bass does this kind of fill

G|---9-10----7-9---9-10---12-14---10-12---9-10-------------------------------|
D|-----------------------------------------------0---------------------------|
A|---------------------------------------------------------------------------|
E|---------------------------------------------------------------------------|

In the verse, bass descends D-major scale, same melody as singing later. 
You may strum open D-string under the melody
G|-19---19--19-18----18---18-16-18-19-18--16--14---14--14--12--14-12--12-11--11-11-9-11-12-11--9-7---7--7--|
D|-0-------------------------------------------------------------------------------------------------------|
A|---------------------------------------------------------------------------------------------------------|
E|---------------------------------------------------------------------------------------------------------|


Pre-chorus
G|---8----8---8--10----10-10------------------------|
D|---8----8---8--10----10-10-12---0---12---0--------|x2
A|--------------------------------------------------|
E|--------------------------------------------------|

He uses similar bass fill here as he plays in the intro 
G|------------------------------------------------9----|
D|-11-12---0--0-11-12---0--0-11-12---0--0-11-12---10---|x4
A|-----------------------------------------------------|
E|-----------------------------------------------------|

Verse comes again and pre-chorus too

Chorus
    G           D            Bb            D           C               Bb           D
G|---------------------------------------------------------9-12-12--9-------------------------------|
D|--5-----5--7--4-----4-5-4--8-----8-10-8--7-----7--8--10--------------8--7--8--10--12--------------|
A|-----5-----------4------------8-------------7-----------------------------------------------------|
E|--------------------------------------------------------------------------------------------------|

He's Captain Lariat!
G|-----------------------11-12-14-15---14--12-11-------------------11-12-14-15---14---12--11------|
D|--12---0---12---0---12---------------------------0---12---0---12--------------------------------|
A|------------------------------------------------------------------------------------------------|
E|------------------------------------------------------------------------------------------------|

Main riff. Guitar play some tropical chords here
Main riff
Verse. Now Les sings the same melody what bass plays. 
Pre-chorus
Chorus

This time chorus ends with different kind of melody
G|--17--16--15--13--14-------------------------------------------------------|
D|--0------------------------------------------------------------------------|
A|---------------------------------------------------------------------------|
E|---------------------------------------------------------------------------|

He's Captain Lariat! -riff again and first movement of this song ends with a D chord

G|--11-----------------------------------------------------------------------|
D|--0------------------------------------------------------------------------|
A|---------------------------------------------------------------------------|
E|---------------------------------------------------------------------------|

There comes a fast part
its an odd rhythm on the D-string, So tabbing it precisely would be waste of time
G|-----------------------------------------------------------------------------------|
D|--0---0---0---0-0-0-0-0-0---0---0----0-0-0-0--0----.....---------15-15-17-15--12\--|
A|-----------------------------------------------------------------------------------|
E|-----------------------------------------------------------------------------------|
Basicly he is improvising licks from D dorian scale
G|-----------------------------------------------------------------------------------|
D|--0---0---0---0-0-0-0-0-0---0---0----0-0-0-0--0-----10--12-10---12-----------------|
A|-----------------------------------------------------------------------------------|
E|-----------------------------------------------------------------------------------|

after some bass soloing the chorus chord progression comes and bass is shredding way too fast for me to 
catch it. After that the same chord progression comes just like the chorus earlier.
Play something around those chords. I don't really know.
    G           D            Bb            D           C               Bb           D
G|---------------------------------------------------------9-12-12--9-------------------------------|
D|--5-----5--7--4-----4-5-4--8-----8-10-8--7-----7--8--10--------------8--7--8--10--12--------------|
A|-----5-----------4------------8-------------7-----------------------------------------------------|
E|--------------------------------------------------------------------------------------------------|

After this the song ends and you'll hear Sean Lennon practicing chorus melody. 


            
            
Suggest correction
Creating personal tab
Creating personal tab
You can edit any tab online and save it as your Personal.

You can edit, replace or remove any tab part or add personal notes – all changes will be seen only by you.

Personal tabs can be accessed anytime from any device, even offline.
Learn more »
comments
print report bad tab
2 comments total.
+1 reply
Elvis_ 190 Jan 05, 2017 07:06 AM

Thanks man for correcting the chorus. Now this tab is near perfect

0 reply
feileacan 40 Jan 10, 2017 04:19 PM

Glad to be of help!

guest
You may want to rate the tab now too:
select rating
Wanna post a correction for this tab? Suggest correction