Oops, an error
Loading. Please wait.

California My Way bass

130 views 3 this week
no commentswrite comment
1 2 3 4 5
3 more votes to show rating
add to favorites
×
Save as Personal and add changes to this tab that will be seen only by you. Learn more ›
×
You can save this tab as Personal to edit and correct it or add notes. All changes will be seen only by you. Learn more »
launch autoscroll
font size
0
reset
guitar tuner
edit
Autoscroll
slow
fast
+/-
esc
set tempo
stop
Tabbed by: 6METAL6BASSIST6
E-mail: petergriffinav@gmail.com

Tuning: EADG

Re-tabbed.

G|----------------------------------------------------------------|
D|----------------------------------------------------------------| x2
A|3-------3-----------1---3---1---3-------3-------0---1---3---0---|
E|----------------3-----------------------------------------------|

G|----------------------------------------------------------------------------------------------------|
D|------------3---------3-------------3---------3-------------3---------3-----------------------------|
A|3---------3-------------3---------3-------------3---------3-------------3-----3-------------0---3---|
E|------------------------------------------------------------------------------------1---3-----------|

0:16

G|----------------------------------------------------------------|
D|----------------------------5---8-------8-------6---8-------8---|
A|6-------6-------6-------6---------------------6---------6-------|
E|--------------6-----6-------------------------------------------|

G|------------------------5---------------------------------------|
D|6-------6-------6---8-------6---5-------5-------3---5-------5---|
A|--------------6-------------------------------5---------5-------|
E|----------------------------------------------------------------|

G|----------------------------------------------------------------|
D|------------------------8-------8-------8-------6---7---8---7---|
A|6-------6-------6---6-------6-----------------6-----------------|
E|--------------6-------------------------------------------------|

G|------------------------5---------------------------------------|
D|6-------6-------6---8-------6---5-------5-------3---4---5-------|
A|--------------6-------------------------------5-------------5---|
E|----------------------------------------------------------------|

0:30

G|----------------------------------------------------------------|
D|----------------------------------------------------------------| x3
A|3-------3-----------1---3---1---3-------3-------0---1---3---0---|
E|----------------3-----------------------------------------------|

G|----------------------------------------------------------------|
D|------------------------------------------------------------1---|
A|3-------3-----------1---3---1---3-------3-------3-----3---------|
E|----------------3-----------------------------------------------|

0:47

G|----------------------------------------------------------------|
D|3-------3-------3-------3-------3-------3-------3-------3-------|
A|----3-------3-------3-------3-------3-------3-------3-------3---|
E|----------------------------------------------------------------|

G|----------------------------------------------------------------|
D|----------------------------------------------------------------|
A|6-------6-------6-------6-------6-------6-------6-------6-------|
E|----6-------6-------6-------6-------6-------6-------6-----------|

G|----------------------------------------------------------------|
D|----------------------------------------------------------------|
A|5-------5---------------3-------5-------5---------------3-------|
E|----------------5-----------5-------------------5-----------5---|

G|----------------------------------------------------------------|
D|--------------------------------5---5---5---5---5---------------|
A|5-------5---------------3---5---------------------------1---/---|
E|----------------5---5-------------------------------------------|

1:00

G|----------------------------------------------------------------|
D|----------------------------5---8-------8-------6---8-------8---|
A|6-------6-------6-------6---------------------6---------6-------|
E|--------------6-----6-------------------------------------------|

G|------------------------5---------------------------------------|
D|6-------6-------6---8-------6---5-------5-------3---5-------5---|
A|--------------6-------------------------------5---------5-------|
E|----------------------------------------------------------------|

G|----------------------------------------------------------------|
D|------------------------8-------8-------8-------6---7---8---7---|
A|6-------6-------6---6-------6-----------------6-----------------|
E|--------------6-------------------------------------------------|

G|------------------------5---------------------------------------|
D|6-------6-------6---8-------6---5-------5-------3---4---5-------|
A|--------------6-------------------------------5-------------5---|
E|----------------------------------------------------------------|

1:15

G|----------------------------------------------------------------|
D|----------------------------------------------------------------| x2
A|3-------3-----------1---3---1---3-------3-------0---1---3---0---|
E|----------------3-----------------------------------------------|

G|----------------------------------------------------------------|
D|------------------------------------------------------------1---|
A|3-------3-----------1---3---1---3-------3-------0---0---3-------|
E|----------------3-----------------------------------------------|

1:31

G|----------------------------------------------------------------|
D|3-------3-------3-------3-------3-------3-------3-------3-------|
A|----3-------3-------3-------3-------3-------3-------3-------3---|
E|----------------------------------------------------------------|

G|----------------------------------------------------------------|
D|----------------------------------------------------------------|
A|6-------6-------6-------6-------6-------6-------6-------6-------|
E|----6-------6-------6-------6-------6-------6-------6-------6---|

G|----------------------------------------------------------------|
D|----------------------------------------------------------------|
A|5-------5---------------3-------5-------5---------------3-------|
E|----------------5-----------5-------------------5-----------5---|

G|--------------------------------|
D|--------------------------------|
A|5-----5-----5---5-------5-------|
E|--------------------------------|

G|----------------------------------------------------------------|
D|5---5---5---5---5---5---5---5---5---5---5---5---5---------------|
A|--------------------------------------------------------1---/---|
E|----------------------------------------------------------------|

1:48

G|----------------------------------------------------------------|
D|----------------------------5---8-------8-------6---8-------8---|
A|6-------6-------6-------6---------------------6---------6-------|
E|--------------6-----6-------------------------------------------|

G|------------------------5---------------------------------------|
D|6-------6-------6---8-------6---5-------5-------3---5-----------|
A|--------------6-------------------------------5---------5-------|
E|----------------------------------------------------------------|

G|------------------------------------------------------------------------|
D|------------3---------3-------------3---------3-------------------------|
A|3---------3-------------3---------3-------------3-----------------------|
E|------------------------------------------------------------------------|

G|----------------------------------------------------------------|
D|----------------------------------------------------------------|
A|3-----1-----3-----1-----3-------3-------------------------------|
E|----3-----3-----3-----3-----3-----------------------------------|

2:05

G|----------------------------------------------------------------|
D|----------------------------5---8-------8-------6---8-------8---|
A|3/6-----6-------6-------6---------------------6---------6-------|
E|--------------6-------6-----------------------------------------|

G|------------------------5---------------------------------------|
D|6-------6-------6---8-------6---5-------5-------3---5-------5---|
A|--------------6-------------------------------5---------5-------|
E|----------------------------------------------------------------|

G|----------------------------------------------------------------|
D|------------------------8-------8-------8-------6---7---8---7---|
A|6-------6-------6---6-------6-----------------6-----------------|
E|--------------6-------------------------------------------------|

G|------------------------5---------------------------------------|
D|6-------6-------6---8-------6---5-------5-------3---4---5-------|
A|--------------6-------------------------------5-------------5---|
E|----------------------------------------------------------------|

G|------------------------------------------------------------------------|
D|------------3---------3-------------3---------3-------------3---------3-|
A|3---------3-------------3---------3-------------3---------3-------------|
E|------------------------------------------------------------------------|

G|--------------------------------|
D|--------------------------------|
A|3-------3---------------0---3---|
E|----------------1---3-----------|

2:28

G|----------------------------------------------------------------|
D|----------------------------------------------------------------| x2
A|3-------3-------1---3-------0---3-------3-------1---3-------0---|
E|--------------3---------3---------------------3---------3-------|

Until fadeout.

G|5-------5-------3---5-----------5-------5-------3---5-----------|
D|--------------5---------5---7-----------------5---------5---7---|
A|----------------------------------------------------------------|
E|----------------------------------------------------------------|

            
            
Suggest correction
Creating personal tab
Creating personal tab
You can edit any tab online and save it as your Personal.

You can edit, replace or remove any tab part or add personal notes – all changes will be seen only by you.

Personal tabs can be accessed anytime from any device, even offline.
Learn more »
Give kudos to tab author, rate the tab!
1 2 3 4 5
comments
print report bad tab
guest
You may want to rate the tab now too:
select rating
Wanna post a correction for this tab? Suggest correction