Oops, an error
Loading. Please wait.

The End Is Near tab

version 2
version 2

Whole song

483 views 1 this week
no commentswrite comment
1 2 3 4 5
2 more votes to show rating
add to favorites
×
Save as Personal and add changes to this tab that will be seen only by you. Learn more ›
×
You can save this tab as Personal to edit and correct it or add notes. All changes will be seen only by you. Learn more »
launch autoscroll
font size
0
reset
how to read this tab
guitar tuner
edit
Autoscroll
slow
fast
+/-
esc
set tempo
stop
Author
Song: The End Is Near
Artist: The Confession
Album: Requem

tuning: Drop C
bpm: 155

Intro (Acoustic)
  Gtrs 1&2
|-----------------|-----------------|-----------------|-----------------|
|-5---------------|-6---------------|-6-----5---------|-----------------|
|---2---2---2---2-|---2---2---2---2-|-----------5-----|-----5-----5-7-5-|
|-----0---0---0---|-----0---0---0---|---5---------5---|-5-------5-------|
|-----------------|-----------------|-----3---3-----3-|---3---3---------|
|-----------------|-----------------|-----------------|-----------------|

                                                   (top notes - Gtr 2)
|-----------------|-----------------|-----------------|-----------------|
|-6-----5-----8---|---------5-6-5---|-----------------|----------6------|
|---5-----5-------|-----7---------7-|----------7------|--------7-7------|
|-----5-----5-----|-----------------|--------7--------|--------7--------|
|-----------------|-----------------|-----------------|-----------------|
|---------------7-|-5---------------|-0---------------|-0---------------|

 Gtr 1
|-----------------|-----------------|-----------------|-----------------|
|-5---------------|-6---------------|-6-----5---------|-----------------|
|---2---2---2---2-|---2---2---2---2-|-----------5-----|-----5-----5-7-5-|
|-----0---0---0---|-----0---0---0---|---5---------5---|-5-------5-------|
|-----------------|-----------------|-----3---3-----3-|---3---3---------|
|-----------------|-----------------|-----------------|-----------------|
|
|
|Gtr 2
|-3---------------|-5---------------|-5-----3---------|-----------------|
|-----------------|-----------------|-----------4-----|-----4-----4-6-4-|
|---2---2---2---2-|---2---2---2---2-|-----------------|-----------------|
|-----0---0---0---|-----0---0---0---|---5---------5---|-5-------5-------|
|-----------------|-----------------|-----3---3-----3-|---3---3---------|
|-----------------|-----------------|-----------------|-----------------|

|-----------------|-----------------|-----------------|
|-6-----5-----8---|---------5-6-5---|-6---------------|
|---5-----5-------|-----7---------7-|-----------------|
|-----5-----5-----|-----------------|-----------------|
|-----------------|-----------------|-----------------|
|---------------7-|-5---------------|-----------------|
|
|
|Gtr 2
|-5-----3-----6---|---------3-5-3---|-5---------------|
|-----------------|-----5---------5-|-----------------|
|---5-----5-------|-----------------|-----------------|
|-----5-----5-----|-----------------|-----------------|
|-----------------|-----------------|-----------------|
|---------------7-|-5---------------|-----------------|

Intro/Chorus (distorted)
 Gtr 1
|-----------------|-----------------|---------------|-----------------|
|-----------------|-----------------|---------------|-----------------|
|-7-------7-------|-7-7---7---7-7-7-|-5------5------|-5-5---5---5-5-5-|
|-7-------7-------|-7-7---7---7-7-7-|-5------5------|-5-5---5---5-5-5-|
|-5-------5-------|-5-5---5---5-5-5-|-3------3------|-3-3---3---3-3-3-|
|-----------------|-----------------|---------------|-----------------|
|
|
|Gtr 2
|-----------------|-----------------|---------------|-----------------|
|-----------------|-----------------|---------------|-----------------|
|-7-------7-------|-7-7---7---7-7-7-|-5------5------|-5-5---5---5-5-5-|
|-7-------7-------|-7-7---7---7-7-7-|-5------5------|-5-5---5---5-5-5-|
|-5-------5-------|-5-5---5---5-5-5-|-3------3------|-3-3---3---3-3-3-|
|-----------------|-----------------|---------------|-----------------|

 Gtr 1
|-----------------|-----------------|---------------|--------------------|
|-----------------|-----------------|---------------|--------------------|
|-----------------|-----------------|---------------|--------------------|
|-8-------8--8-7--|-5---------------|-0---------5-7-|---8---7-----5--5h7-|
|-8-------8--8-7--|-5---------5-5-5-|-0-------------|--------------------|
|-8-------8--8-7--|-5---------5-5-5-|-0-----0-0-----|-0---0---0-0---0----|
|
|Gtr 2
|-----------------|-----------------|---------------|--------------------|
|-----------------|-----------------|---------------|--------------------|
|-----------------|-----------------|-----------4-5-|---7---5-----4--4h5-|
|-8-------8--8-7--|-5---------------|-0-------------|--------------------|
|-8-------8--8-7--|-5---------5-5-5-|-0-------------|--------------------|
|-8-------8--8-7--|-5---------5-5-5-|-0-----0-0-----|-0---0---0-0---0----|


Gtr 1
|-----------------|-----------------|---------------|-----------------|
|-----------------|-----------------|---------------|-----------------|
|-7-------7-------|-7-7---7---7-7-7-|-5------5------|-5-5---5---5-5-5-|
|-7-------7-------|-7-7---7---7-7-7-|-5------5------|-5-5---5---5-5-5-|
|-5-------5-------|-5-5---5---5-5-5-|-3------3------|-3-3---3---3-3-3-|
|-----------------|-----------------|---------------|-----------------|
|
|
|Gtr 2
|-----------------|-----------------|---------------|-----------------|
|-----------------|-----------------|---------------|-----------------|
|-7-------7-------|-7-7---7---7-7-7-|-5------5------|-5-5---5---5-5-5-|
|-7-------7-------|-7-7---7---7-7-7-|-5------5------|-5-5---5---5-5-5-|
|-5-------5-------|-5-5---5---5-5-5-|-3------3------|-3-3---3---3-3-3-|
|-----------------|-----------------|---------------|-----------------|

 Gtr 1
|-----------------|-----------------|
|-----------------|-----------------|
|-----------------|-----------------|
|-8-------8--8-7--|-5---------------|
|-8-------8--8-7--|-5---------5-5-5-|
|-8-------8--8-7--|-5---------5-5-5-|
|
|Gtr 2
|-----------------|-----------------|
|-----------------|-----------------|
|-----------------|-----------------|
|-8-------8--8-7--|-5---------------|
|-8-------8--8-7--|-5---------5-5-5-|
|-8-------8--8-7--|-5---------5-5-5-|

Verse
 Gtr 1
|-----------------|-----------------|-----------------|------------------|
|-----------------|-----------------|-----------------|------------------|
|-----------------|-----------------|-----------------|------------------|
|-----------------|-----------------|-----------------|------------------|
|-0-0-0-----------|-----------------|-0-0-0-----------|---------3-5-3----|
|-0-0-0-----------|-----------------|-0-0-0-----------|---------------5*-|
|
|Gtr 2
|-----------------|-----------------|-----------------|------------------|
|-----------------|-----------------|-----------------|------------------|
|-----------------|-----------------|-----------------|------------------|
|-----------------|-----------------|-----------------|------------------|
|-0-0-0-----------|-----------------|-0-0-0-----------|------------------|
|-0-0-0-----------|-----------------|-0-0-0-----------|------------------|

 Gtr 1
|-----------------|-----------------|-----------------|-------------------|
|-----------------|-----------------|-----------------|-------------------|
|-----------------|-----------------|-----------------|-------------------|
|-----------------|-----------------|-8-------7-------|-------------------|
|-0-0-0-----------|-----------------|-8-------7-------|-------8----7-8-10-|
|-0-0-0-----------|-----------------|-8-------7-------|-8-7-8---10--------|
|
|Gtr 2
|-----------------|-----------------|-----------------|-------------------|
|-----------------|-----------------|-----------------|-------------------|
|-----------------|-----------------|-----------------|-------------------|
|-----------------|-----------------|-8-------7-------|-------7----5-7-8--|
|-0-0-0-----------|-----------------|-8-------7-------|-5-3-5---7---------|
|-0-0-0-----------|-----------------|-8-------7-------|-------------------|


Gtr 1
|-----------------|---------------------|
|-----------------|---------------------|
|-----------------|---------------------|
|-----------------|---3-----------------|
|------3------3-5-|-------5-----3---3-5-|
|-0-0------0------|-0---0---0-0---0-----|
|
|Gtr 2
|-----------------|---------------------|
|-----------------|---------------------|
|-----------------|---------------------|
|-----------------|---------------------|
|-0-0-0-----------|---------------------|
|-0-0-0-----------|---------------------|

Gtr 1
|-----------------|--------------------|
|-----------------|--------------------|
|-----------------|--------------------|
|-----------------|---3-------------5*-|
|------3------3-5-|-------5---3-5-3----|
|-0-0------0------|-0---0---0----------|
|
|Gtr 2
|-----------------|--------------------|
|-----------------|--------------------|
|-----------------|--------------------|
|-----------------|--------------------|
|-0-0-0-----------|--------------------|
|-0-0-0-----------|--------------------|

Gtr 1
|-----------------|---------------------|
|-----------------|---------------------|
|-----------------|---------------------|
|-----------------|---3-----------------|
|------3------3-5-|-------5-----3---3-5-|
|-0-0------0------|-0---0---0-0---0-----|
|
|Gtr 2
|-----------------|---------------------|
|-----------------|---------------------|
|-----------------|---------------------|
|-----------------|---------------------|
|-0-0-0-----------|---------------------|
|-0-0-0-----------|---------------------|

The End Is Near
The Confession
Requem

tuning: Drop C
bpm: 155

Intro (Acoustic)
  Gtr 1
|-----------------|-----------------|-----------------|-----------------|
|-5---------------|-6---------------|-6-----5---------|-----------------|
|---2---2---2---2-|---2---2---2---2-|-----------5-----|-----5-----5-7-5-|
|-----0---0---0---|-----0---0---0---|---5---------5---|-5-------5-------|
|-----------------|-----------------|-----3---3-----3-|---3---3---------|
|-----------------|-----------------|-----------------|-----------------|

                                                    (top notes - Gtr 2)
|-----------------|-----------------|-----------------|-----------------|
|-6-----5-----8---|---------5-6-5---|-----------------|----------6------|
|---5-----5-------|-----7---------7-|----------7------|--------7-7------|
|-----5-----5-----|-----------------|--------7--------|--------7--------|
|-----------------|-----------------|-----------------|-----------------|
|---------------7-|-5---------------|-0---------------|-0---------------|

 Gtr 1
|-----------------|-----------------|-----------------|-----------------|
|-5---------------|-6---------------|-6-----5---------|-----------------|
|---2---2---2---2-|---2---2---2---2-|-----------5-----|-----5-----5-7-5-|
|-----0---0---0---|-----0---0---0---|---5---------5---|-5-------5-------|
|-----------------|-----------------|-----3---3-----3-|---3---3---------|
|-----------------|-----------------|-----------------|-----------------|
|
|
|Gtr 2
|-3---------------|-5---------------|-5-----3---------|-----------------|
|-----------------|-----------------|-----------4-----|-----4-----4-6-4-|
|---2---2---2---2-|---2---2---2---2-|-----------------|-----------------|
|-----0---0---0---|-----0---0---0---|---5---------5---|-5-------5-------|
|-----------------|-----------------|-----3---3-----3-|---3---3---------|
|-----------------|-----------------|-----------------|-----------------|

|-----------------|-----------------|-----------------|
|-6-----5-----8---|---------5-6-5---|-6---------------|
|---5-----5-------|-----7---------7-|-----------------|
|-----5-----5-----|-----------------|-----------------|
|-----------------|-----------------|-----------------|
|---------------7-|-5---------------|-----------------|
|
|
|Gtr 2
|-5-----3-----6---|---------3-5-3---|-5---------------|
|-----------------|-----5---------5-|-----------------|
|---5-----5-------|-----------------|-----------------|
|-----5-----5-----|-----------------|-----------------|
|-----------------|-----------------|-----------------|
|---------------7-|-5---------------|-----------------|

Chorus
 Gtr 1
|-----------------|-----------------|---------------|-----------------|
|-----------------|-----------------|---------------|-----------------|
|-7-------7-------|-7-7---7---7-7-7-|-5------5------|-5-5---5---5-5-5-|
|-7-------7-------|-7-7---7---7-7-7-|-5------5------|-5-5---5---5-5-5-|
|-5-------5-------|-5-5---5---5-5-5-|-3------3------|-3-3---3---3-3-3-|
|-----------------|-----------------|---------------|-----------------|
|
|
|Gtr 2
|-----------------|-----------------|---------------|-----------------|
|-----------------|-----------------|---------------|-----------------|
|-7-------7-------|-7-7---7---7-7-7-|-5------5------|-5-5---5---5-5-5-|
|-7-------7-------|-7-7---7---7-7-7-|-5------5------|-5-5---5---5-5-5-|
|-5-------5-------|-5-5---5---5-5-5-|-3------3------|-3-3---3---3-3-3-|
|-----------------|-----------------|---------------|-----------------|

 Gtr 1
|-----------------|-----------------|---------------|--------------------|
|-----------------|-----------------|---------------|--------------------|
|-----------------|-----------------|---------------|--------------------|
|-8-------8--8-7--|-5---------------|-0---------5-7-|---8---7-----5--5h7-|
|-8-------8--8-7--|-5---------5-5-5-|-0-------------|--------------------|
|-8-------8--8-7--|-5---------5-5-5-|-0-----0-0-----|-0---0---0-0---0----|
|
|Gtr 2
|-----------------|-----------------|---------------|--------------------|
|-----------------|-----------------|---------------|--------------------|
|-----------------|-----------------|-----------4-5-|---7---5-----4--4h5-|
|-8-------8--8-7--|-5---------------|-0-------------|--------------------|
|-8-------8--8-7--|-5---------5-5-5-|-0-------------|--------------------|
|-8-------8--8-7--|-5---------5-5-5-|-0-----0-0-----|-0---0---0-0---0----|

Gtr 1
|-----------------|-----------------|---------------|-----------------|
|-----------------|-----------------|---------------|-----------------|
|-7-------7-------|-7-7---7---7-7-7-|-5------5------|-5-5---5---5-5-5-|
|-7-------7-------|-7-7---7---7-7-7-|-5------5------|-5-5---5---5-5-5-|
|-5-------5-------|-5-5---5---5-5-5-|-3------3------|-3-3---3---3-3-3-|
|-----------------|-----------------|---------------|-----------------|
|
|
|Gtr 2
|-----------------|-----------------|---------------|-----------------|
|-----------------|-----------------|---------------|-----------------|
|-7-------7-------|-7-7---7---7-7-7-|-5------5------|-5-5---5---5-5-5-|
|-7-------7-------|-7-7---7---7-7-7-|-5------5------|-5-5---5---5-5-5-|
|-5-------5-------|-5-5---5---5-5-5-|-3------3------|-3-3---3---3-3-3-|
|-----------------|-----------------|---------------|-----------------|

 Gtr 1
|-----------------|-----------------|---------------|--------------------|
|-----------------|-----------------|---------------|--------------------|
|-----------------|-----------------|---------------|--------------------|
|-8-------8--8-7--|-5---------------|-0---------5-7-|---8---7-----5--5h7-|
|-8-------8--8-7--|-5---------5-5-5-|-0-------------|--------------------|
|-8-------8--8-7--|-5---------5-5-5-|-0-----0-0-----|-0---0---0-0---0----|
|
|Gtr 2
|-----------------|-----------------|
|-----------------|-----------------|
|-----------------|-----------------|
|-8-------8--8-7--|-5---------------|
|-8-------8--8-7--|-5---------5-5-5-|
|-8-------8--8-7--|-5---------5-5-5-|


 Gtr 1
|-----------------|-------------------|
|-----------------|-------------------|
|-----------------|-------------------|
|-8-------7-------|-------------------|
|-8-------7-------|-------8----7-8-10-|
|-8-------7-------|-8-7-8---10--------|
|
|
|Gtr 2
|-----------------|-------------------|
|-----------------|-------------------|
|-----------------|-------------------|
|-8-------7-------|-------7----5-7-8--|
|-8-------7-------|-5-3-5---7---------|
|-8-------7-------|-------------------|

Pre-Chorus
Gtr 1
|------------------|------------------|
|------------------|------------------|
|-----10---9-------|-10---9-------9---|
|-8-8----8---8-8-8-|----8---8-8-8---8-|
|------------------|------------------|
|------------------|------------------|
|
|
|Gtr 2
|------------------|------------------|
|------------------|------------------|
|------------------|------------------|
|-8-------8------8-|-8--8---8---8---8-|
|-8-------8------8-|-8--8---8---8---8-|
|-8-------8------8-|-8--8---8---8---8-|

Gtr 1
|------------------|---------------------|
|------------------|--------12-12-11-10--|
|-----10---9-------|-10---9--------------|
|-8-8----8---8-8-8-|----8----------------|
|------------------|---------------------|
|------------------|---------------------|
|
|
|Gtr 2
|------------------|---------------------|
|------------------|---------------------|
|------------------|---------------------|
|-8-------8------8-|-8--8----8----8----8-|
|-8-------8------8-|-8--8----8----8----8-|
|-8-------8------8-|-8--8----8----8----8-|

Gtr 1
|---------------|---------------|---------------|-------------|
|---------------|---------------|---------------|-------------|
|---------------|---------------|---------------|-------------|
|-0-------------|---------------|-0-------------|-------------|
|-0------8------|-7------5------|-0------8------|-7h8--10-8---|
|-0--0-0----0-0-|----0-0----0-0-|-0--0-0----0-0-|-------------|
|
|Gtr 2
|---------------|---------------|---------------|-------------|
|---------------|---------------|---------------|-------------|
|---------------|---------------|---------------|-------------|
|-0------7------|-5------3------|-0------7------|-5h7--8--7---|
|-0-------------|---------------|-0-------------|-------------|
|-0--0-0----0-0-|----0-0----0-0-|-0--0-0----0-0-|-------------|

Gtr 1
|------------------|------------------|
|------------------|------------------|
|-----10---9-------|-10---9-------9---|
|-8-8----8---8-8-8-|----8---8-8-8---8-|
|------------------|------------------|
|------------------|------------------|
|
|
|Gtr 2
|------------------|------------------|
|------------------|------------------|
|------------------|------------------|
|-8-------8------8-|-8--8---8---8---8-|
|-8-------8------8-|-8--8---8---8---8-|
|-8-------8------8-|-8--8---8---8---8-|

Gtr 1
|------------------|---------------------|
|------------------|--------12-12-11-10--|
|-----10---9-------|-10---9--------------|
|-8-8----8---8-8-8-|----8----------------|
|------------------|---------------------|
|------------------|---------------------|
|
|
|Gtr 2
|------------------|---------------------|
|------------------|---------------------|
|------------------|---------------------|
|-8-------8------8-|-8--8----8----8----8-|
|-8-------8------8-|-8--8----8----8----8-|
|-8-------8------8-|-8--8----8----8----8-|

Gtr 1
|---------------|---------------|---------------|-------------------|
|---------------|---------------|---------------|-------------------|
|---------------|---------------|-3-------------|-2-------5-5---5---|
|-0-------------|---------------|-3-------------|-2-------5-5---5---|
|-0------8------|-7------5------|-1-------------|-0-------3-3---3---|
|-0--0-0----0-0-|----0-0----0-0-|---------------|-------------------|
|
|Gtr 2
|---------------|---------------|---------------|-------------------|
|---------------|---------------|---------------|-------------------|
|---------------|---------------|-3-------------|-2-------5-5---5---|
|-0------7------|-5------3------|-3-------------|-2-------5-5---5---|
|-0-------------|---------------|-1-------------|-0-------3-3---3---|
|-0--0-0----0-0-|----0-0----0-0-|---------------|-------------------|

Chorus
 Gtr 1
|-----------------|-----------------|---------------|-----------------|
|-----------------|-----------------|---------------|-----------------|
|-7-------7-------|-7-7---7---7-7-7-|-5------5------|-5-5---5---5-5-5-|
|-7-------7-------|-7-7---7---7-7-7-|-5------5------|-5-5---5---5-5-5-|
|-5-------5-------|-5-5---5---5-5-5-|-3------3------|-3-3---3---3-3-3-|
|-----------------|-----------------|---------------|-----------------|
|
|
|Gtr 2
|-----------------|-----------------|---------------|-----------------|
|-----------------|-----------------|---------------|-----------------|
|-7-------7-------|-7-7---7---7-7-7-|-5------5------|-5-5---5---5-5-5-|
|-7-------7-------|-7-7---7---7-7-7-|-5------5------|-5-5---5---5-5-5-|
|-5-------5-------|-5-5---5---5-5-5-|-3------3------|-3-3---3---3-3-3-|
|-----------------|-----------------|---------------|-----------------|

 Gtr 1
|-----------------|-----------------|---------------|--------------------|
|-----------------|-----------------|---------------|--------------------|
|-----------------|-----------------|---------------|--------------------|
|-8-------8--8-7--|-5---------------|-0---------5-7-|---8---7-----5--5h7-|
|-8-------8--8-7--|-5---------5-5-5-|-0-------------|--------------------|
|-8-------8--8-7--|-5---------5-5-5-|-0-----0-0-----|-0---0---0-0---0----|
|
|Gtr 2
|-----------------|-----------------|---------------|--------------------|
|-----------------|-----------------|---------------|--------------------|
|-----------------|-----------------|-----------4-5-|---7---5-----4--4h5-|
|-8-------8--8-7--|-5---------------|-0-------------|--------------------|
|-8-------8--8-7--|-5---------5-5-5-|-0-------------|--------------------|
|-8-------8--8-7--|-5---------5-5-5-|-0-----0-0-----|-0---0---0-0---0----|


Gtr 1
|-----------------|-----------------|---------------|-----------------|
|-----------------|-----------------|---------------|-----------------|
|-7-------7-------|-7-7---7---7-7-7-|-5------5------|-5-5---5---5-5-5-|
|-7-------7-------|-7-7---7---7-7-7-|-5------5------|-5-5---5---5-5-5-|
|-5-------5-------|-5-5---5---5-5-5-|-3------3------|-3-3---3---3-3-3-|
|-----------------|-----------------|---------------|-----------------|
|
|
|Gtr 2
|-----------------|-----------------|---------------|-----------------|
|-----------------|-----------------|---------------|-----------------|
|-7-------7-------|-7-7---7---7-7-7-|-5------5------|-5-5---5---5-5-5-|
|-7-------7-------|-7-7---7---7-7-7-|-5------5------|-5-5---5---5-5-5-|
|-5-------5-------|-5-5---5---5-5-5-|-3------3------|-3-3---3---3-3-3-|
|-----------------|-----------------|---------------|-----------------|

 Gtr 1
|-----------------|-----------------|---------------|--------------------|
|-----------------|-----------------|---------------|--------------------|
|-----------------|-----------------|---------------|--------------------|
|-8-------8--8-7--|-5---------------|-0---------5-7-|---8---7-----5--5h7-|
|-8-------8--8-7--|-5---------5-5-5-|-0-------------|--------------------|
|-8-------8--8-7--|-5---------5-5-5-|-0-----0-0-----|-0---0---0-0---0----|
|
|Gtr 2
|-----------------|-----------------|
|-----------------|-----------------|
|-----------------|-----------------|
|-8-------8--8-7--|-5---------------|
|-8-------8--8-7--|-5---------5-5-5-|
|-8-------8--8-7--|-5---------5-5-5-|

Verse
 Gtr 1
|-----------------|-----------------|-----------------|------------------|
|-----------------|-----------------|-----------------|------------------|
|-----------------|-----------------|-----------------|------------------|
|-----------------|-----------------|-----------------|------------------|
|-0-0-0-----------|-----------------|-0-0-0-----------|---------3-5-3----|
|-0-0-0-----------|-----------------|-0-0-0-----------|---------------5*-|
|
|Gtr 2
|-----------------|-----------------|-----------------|------------------|
|-----------------|-----------------|-----------------|------------------|
|-----------------|-----------------|-----------------|------------------|
|-----------------|-----------------|-----------------|------------------|
|-0-0-0-----------|-----------------|-0-0-0-----------|------------------|
|-0-0-0-----------|-----------------|-0-0-0-----------|------------------|

 Gtr 1
|-----------------|-----------------|-----------------|-------------------|
|-----------------|-----------------|-----------------|-------------------|
|-----------------|-----------------|-----------------|-------------------|
|-----------------|-----------------|-8-------7-------|-------------------|
|-0-0-0-----------|-----------------|-8-------7-------|-------8----7-8-10-|
|-0-0-0-----------|-----------------|-8-------7-------|-8-7-8---10--------|
|
|Gtr 2
|-----------------|-----------------|-----------------|-------------------|
|-----------------|-----------------|-----------------|-------------------|
|-----------------|-----------------|-----------------|-------------------|
|-----------------|-----------------|-8-------7-------|-------7----5-7-8--|
|-0-0-0-----------|-----------------|-8-------7-------|-5-3-5---7---------|
|-0-0-0-----------|-----------------|-8-------7-------|-------------------|

Gtr 1
|-----------------|---------------------|
|-----------------|---------------------|
|-----------------|---------------------|
|-----------------|---3-----------------|
|------3------3-5-|-------5-----3---3-5-|
|-0-0------0------|-0---0---0-0---0-----|
|
|Gtr 2
|-----------------|---------------------|
|-----------------|---------------------|
|-----------------|---------------------|
|-----------------|---------------------|
|-0-0-0-----------|---------------------|
|-0-0-0-----------|---------------------|

Gtr 1
|-----------------|--------------------|
|-----------------|--------------------|
|-----------------|--------------------|
|-----------------|---3-------------5*-|
|------3------3-5-|-------5---3-5-3----|
|-0-0------0------|-0---0---0----------|
|
|Gtr 2
|-----------------|--------------------|
|-----------------|--------------------|
|-----------------|--------------------|
|-----------------|--------------------|
|-0-0-0-----------|--------------------|
|-0-0-0-----------|--------------------|

Gtr 1
|-----------------|---------------------|
|-----------------|---------------------|
|-----------------|---------------------|
|-----------------|---3-----------------|
|------3------3-5-|-------5-----3---3-5-|
|-0-0------0------|-0---0---0-0---0-----|
|
|Gtr 2
|-----------------|---------------------|
|-----------------|---------------------|
|-----------------|---------------------|
|-----------------|---------------------|
|-0-0-0-----------|---------------------|
|-0-0-0-----------|---------------------|
     .   .   .

The End Is Near
The Confession
Requem

tuning: Drop C
bpm: 155

Intro (Acoustic)
  Gtr 1
|-----------------|-----------------|-----------------|-----------------|
|-5---------------|-6---------------|-6-----5---------|-----------------|
|---2---2---2---2-|---2---2---2---2-|-----------5-----|-----5-----5-7-5-|
|-----0---0---0---|-----0---0---0---|---5---------5---|-5-------5-------|
|-----------------|-----------------|-----3---3-----3-|---3---3---------|
|-----------------|-----------------|-----------------|-----------------|

                                                  (top notes - Gtr 2)
|-----------------|-----------------|-----------------|-----------------|
|-6-----5-----8---|---------5-6-5---|-----------------|----------6------|
|---5-----5-------|-----7---------7-|----------7------|--------7-7------|
|-----5-----5-----|-----------------|--------7--------|--------7--------|
|-----------------|-----------------|-----------------|-----------------|
|---------------7-|-5---------------|-0---------------|-0---------------|

 Gtr 1
|-----------------|-----------------|-----------------|-----------------|
|-5---------------|-6---------------|-6-----5---------|-----------------|
|---2---2---2---2-|---2---2---2---2-|-----------5-----|-----5-----5-7-5-|
|-----0---0---0---|-----0---0---0---|---5---------5---|-5-------5-------|
|-----------------|-----------------|-----3---3-----3-|---3---3---------|
|-----------------|-----------------|-----------------|-----------------|
|
|
|Gtr 2
|-3---------------|-5---------------|-5-----3---------|-----------------|
|-----------------|-----------------|-----------4-----|-----4-----4-6-4-|
|---2---2---2---2-|---2---2---2---2-|-----------------|-----------------|
|-----0---0---0---|-----0---0---0---|---5---------5---|-5-------5-------|
|-----------------|-----------------|-----3---3-----3-|---3---3---------|
|-----------------|-----------------|-----------------|-----------------|

|-----------------|-----------------|-----------------|
|-6-----5-----8---|---------5-6-5---|-6---------------|
|---5-----5-------|-----7---------7-|-----------------|
|-----5-----5-----|-----------------|-----------------|
|-----------------|-----------------|-----------------|
|---------------7-|-5---------------|-----------------|
|
|
|Gtr 2
|-5-----3-----6---|---------3-5-3---|-5---------------|
|-----------------|-----5---------5-|-----------------|
|---5-----5-------|-----------------|-----------------|
|-----5-----5-----|-----------------|-----------------|
|-----------------|-----------------|-----------------|
|---------------7-|-5---------------|-----------------|

Chorus
 Gtr 1
|-----------------|-----------------|---------------|-----------------|
|-----------------|-----------------|---------------|-----------------|
|-7-------7-------|-7-7---7---7-7-7-|-5------5------|-5-5---5---5-5-5-|
|-7-------7-------|-7-7---7---7-7-7-|-5------5------|-5-5---5---5-5-5-|
|-5-------5-------|-5-5---5---5-5-5-|-3------3------|-3-3---3---3-3-3-|
|-----------------|-----------------|---------------|-----------------|
|
|
|Gtr 2
|-----------------|-----------------|---------------|-----------------|
|-----------------|-----------------|---------------|-----------------|
|-7-------7-------|-7-7---7---7-7-7-|-5------5------|-5-5---5---5-5-5-|
|-7-------7-------|-7-7---7---7-7-7-|-5------5------|-5-5---5---5-5-5-|
|-5-------5-------|-5-5---5---5-5-5-|-3------3------|-3-3---3---3-3-3-|
|-----------------|-----------------|---------------|-----------------|

 Gtr 1
|-----------------|-----------------|---------------|--------------------|
|-----------------|-----------------|---------------|--------------------|
|-----------------|-----------------|---------------|--------------------|
|-8-------8--8-7--|-5---------------|-0---------5-7-|---8---7-----5--5h7-|
|-8-------8--8-7--|-5---------5-5-5-|-0-------------|--------------------|
|-8-------8--8-7--|-5---------5-5-5-|-0-----0-0-----|-0---0---0-0---0----|
|
|Gtr 2
|-----------------|-----------------|---------------|--------------------|
|-----------------|-----------------|---------------|--------------------|
|-----------------|-----------------|-----------4-5-|---7---5-----4--4h5-|
|-8-------8--8-7--|-5---------------|-0-------------|--------------------|
|-8-------8--8-7--|-5---------5-5-5-|-0-------------|--------------------|
|-8-------8--8-7--|-5---------5-5-5-|-0-----0-0-----|-0---0---0-0---0----|

Gtr 1
|-----------------|-----------------|---------------|-----------------|
|-----------------|-----------------|---------------|-----------------|
|-7-------7-------|-7-7---7---7-7-7-|-5------5------|-5-5---5---5-5-5-|
|-7-------7-------|-7-7---7---7-7-7-|-5------5------|-5-5---5---5-5-5-|
|-5-------5-------|-5-5---5---5-5-5-|-3------3------|-3-3---3---3-3-3-|
|-----------------|-----------------|---------------|-----------------|
|
|
|Gtr 2
|-----------------|-----------------|---------------|-----------------|
|-----------------|-----------------|---------------|-----------------|
|-7-------7-------|-7-7---7---7-7-7-|-5------5------|-5-5---5---5-5-5-|
|-7-------7-------|-7-7---7---7-7-7-|-5------5------|-5-5---5---5-5-5-|
|-5-------5-------|-5-5---5---5-5-5-|-3------3------|-3-3---3---3-3-3-|
|-----------------|-----------------|---------------|-----------------|

 Gtr 1
|-----------------|-----------------|
|-----------------|-----------------|
|-----------------|-----------------|
|-8-------8--8-7--|-5---------------|
|-8-------8--8-7--|-5---------5-5-5-|
|-8-------8--8-7--|-5---------5-5-5-|
|
|Gtr 2
|-----------------|-----------------|
|-----------------|-----------------|
|-----------------|-----------------|
|-8-------8--8-7--|-5---------------|
|-8-------8--8-7--|-5---------5-5-5-|
|-8-------8--8-7--|-5---------5-5-5-|

 Gtr 1
|-----------------|-------------------|
|-----------------|-------------------|
|-----------------|-------------------|
|-8-------7-------|-------------------|
|-8-------7-------|-------8----7-8-10-|
|-8-------7-------|-8-7-8---10--------|
|
|
|Gtr 2
|-----------------|-------------------|
|-----------------|-------------------|
|-----------------|-------------------|
|-8-------7-------|-------7----5-7-8--|
|-8-------7-------|-5-3-5---7---------|
|-8-------7-------|-------------------|

Pre-Chorus
Gtr 1
|------------------|------------------|
|------------------|------------------|
|-----10---9-------|-10---9-------9---|
|-8-8----8---8-8-8-|----8---8-8-8---8-|
|------------------|------------------|
|------------------|------------------|
|
|
|Gtr 2
|------------------|------------------|
|------------------|------------------|
|------------------|------------------|
|-8-------8------8-|-8--8---8---8---8-|
|-8-------8------8-|-8--8---8---8---8-|
|-8-------8------8-|-8--8---8---8---8-|

Gtr 1
|------------------|---------------------|
|------------------|--------12-12-11-10--|
|-----10---9-------|-10---9--------------|
|-8-8----8---8-8-8-|----8----------------|
|------------------|---------------------|
|------------------|---------------------|
|
|
|Gtr 2
|------------------|---------------------|
|------------------|---------------------|
|------------------|---------------------|
|-8-------8------8-|-8--8----8----8----8-|
|-8-------8------8-|-8--8----8----8----8-|
|-8-------8------8-|-8--8----8----8----8-|

Gtr 1
|---------------|---------------|---------------|-------------|
|---------------|---------------|---------------|-------------|
|---------------|---------------|---------------|-------------|
|-0-------------|---------------|-0-------------|-------------|
|-0------8------|-7------5------|-0------8------|-7h8--10-8---|
|-0--0-0----0-0-|----0-0----0-0-|-0--0-0----0-0-|-------------|
|
|Gtr 2
|---------------|---------------|---------------|-------------|
|---------------|---------------|---------------|-------------|
|---------------|---------------|---------------|-------------|
|-0------7------|-5------3------|-0------7------|-5h7--8--7---|
|-0-------------|---------------|-0-------------|-------------|
|-0--0-0----0-0-|----0-0----0-0-|-0--0-0----0-0-|-------------|

Gtr 1
|------------------|------------------|
|------------------|------------------|
|-----10---9-------|-10---9-------9---|
|-8-8----8---8-8-8-|----8---8-8-8---8-|
|------------------|------------------|
|------------------|------------------|
|
|
|Gtr 2
|------------------|------------------|
|------------------|------------------|
|------------------|------------------|
|-8-------8------8-|-8--8---8---8---8-|
|-8-------8------8-|-8--8---8---8---8-|
|-8-------8------8-|-8--8---8---8---8-|

Gtr 1
|------------------|---------------------|
|------------------|--------12-12-11-10--|
|-----10---9-------|-10---9--------------|
|-8-8----8---8-8-8-|----8----------------|
|------------------|---------------------|
|------------------|---------------------|
|
|
|Gtr 2
|------------------|---------------------|
|------------------|---------------------|
|------------------|---------------------|
|-8-------8------8-|-8--8----8----8----8-|
|-8-------8------8-|-8--8----8----8----8-|
|-8-------8------8-|-8--8----8----8----8-|

Gtr 1
|---------------|---------------|---------------|-------------------|
|---------------|---------------|---------------|-------------------|
|---------------|---------------|-3-------------|-2-------5-5---5---|
|-0-------------|---------------|-3-------------|-2-------5-5---5---|
|-0------8------|-7------5------|-1-------------|-0-------3-3---3---|
|-0--0-0----0-0-|----0-0----0-0-|---------------|-------------------|
|
|Gtr 2
|---------------|---------------|---------------|-------------------|
|---------------|---------------|---------------|-------------------|
|---------------|---------------|-3-------------|-2-------5-5---5---|
|-0------7------|-5------3------|-3-------------|-2-------5-5---5---|
|-0-------------|---------------|-1-------------|-0-------3-3---3---|
|-0--0-0----0-0-|----0-0----0-0-|---------------|-------------------|

Chorus
 Gtr 1
|-----------------|-----------------|---------------|-----------------|
|-----------------|-----------------|---------------|-----------------|
|-7-------7-------|-7-7---7---7-7-7-|-5------5------|-5-5---5---5-5-5-|
|-7-------7-------|-7-7---7---7-7-7-|-5------5------|-5-5---5---5-5-5-|
|-5-------5-------|-5-5---5---5-5-5-|-3------3------|-3-3---3---3-3-3-|
|-----------------|-----------------|---------------|-----------------|
|
|
|Gtr 2
|-----------------|-----------------|---------------|-----------------|
|-----------------|-----------------|---------------|-----------------|
|-7-------7-------|-7-7---7---7-7-7-|-5------5------|-5-5---5---5-5-5-|
|-7-------7-------|-7-7---7---7-7-7-|-5------5------|-5-5---5---5-5-5-|
|-5-------5-------|-5-5---5---5-5-5-|-3------3------|-3-3---3---3-3-3-|
|-----------------|-----------------|---------------|-----------------|

 Gtr 1
|-----------------|-----------------|---------------|--------------------|
|-----------------|-----------------|---------------|--------------------|
|-----------------|-----------------|---------------|--------------------|
|-8-------8--8-7--|-5---------------|-0---------5-7-|---8---7-----5--5h7-|
|-8-------8--8-7--|-5---------5-5-5-|-0-------------|--------------------|
|-8-------8--8-7--|-5---------5-5-5-|-0-----0-0-----|-0---0---0-0---0----|
|
|Gtr 2
|-----------------|-----------------|---------------|--------------------|
|-----------------|-----------------|---------------|--------------------|
|-----------------|-----------------|-----------4-5-|---7---5-----4--4h5-|
|-8-------8--8-7--|-5---------------|-0-------------|--------------------|
|-8-------8--8-7--|-5---------5-5-5-|-0-------------|--------------------|
|-8-------8--8-7--|-5---------5-5-5-|-0-----0-0-----|-0---0---0-0---0----|

Gtr 1
|-----------------|-----------------|---------------|-----------------|
|-----------------|-----------------|---------------|-----------------|
|-7-------7-------|-7-7---7---7-7-7-|-5------5------|-5-5---5---5-5-5-|
|-7-------7-------|-7-7---7---7-7-7-|-5------5------|-5-5---5---5-5-5-|
|-5-------5-------|-5-5---5---5-5-5-|-3------3------|-3-3---3---3-3-3-|
|-----------------|-----------------|---------------|-----------------|
|
|
|Gtr 2
|-----------------|-----------------|---------------|-----------------|
|-----------------|-----------------|---------------|-----------------|
|-7-------7-------|-7-7---7---7-7-7-|-5------5------|-5-5---5---5-5-5-|
|-7-------7-------|-7-7---7---7-7-7-|-5------5------|-5-5---5---5-5-5-|
|-5-------5-------|-5-5---5---5-5-5-|-3------3------|-3-3---3---3-3-3-|
|-----------------|-----------------|---------------|-----------------|

 Gtr 1
|-----------------|-----------------|
|-----------------|-----------------|
|-----------------|-----------------|
|-8-------8--8-7--|-5---------------|
|-8-------8--8-7--|-5---------5-5-5-|
|-8-------8--8-7--|-5---------5-5-5-|
|
|Gtr 2
|-----------------|-----------------|
|-----------------|-----------------|
|-----------------|-----------------|
|-8-------8--8-7--|-5---------------|
|-8-------8--8-7--|-5---------5-5-5-|
|-8-------8--8-7--|-5---------5-5-5-|

Breakdown pt 1
 Gtr 1
|-----------------|-----------------|-----------------|-----------------|
|-----------------|-----------------|-----------------|-----------------|
|-----------------|-----------------|-----------------|-----------------|
|-0---------------|-----------------|-----------------|-----------------|
|-0---------------|-----------------|-----------------|-----------------|
|-0---------------|-----------------|-----------------|-----------------|
|(let ring)
|
|Gtr 2
|-----------------|-----------------|-----------------|-----------------|
|-----------------|-----------------|-----------------|-----------------|
|-----------------|-----------------|-----------------|-----------------|
|-0---------------|-----------------|-----------------|-----------------|
|-0---------------|-----------------|-----------------|-----------------|
|-0---------------|-----------------|-----------------|-----------------|
 (let ring)

 Gtr 1
|-----------------|-----------------|-----------------|-----------------|
|-----------------|-----------------|-----------------|-----------------|
|-----------------|-----------------|-----------------|-----------------|
|-----------------|-----------------|-----------------|-----------------|
|-----------------|-----------------|-----------------|-----------------|
|-----------------|-----------------|-----------------|-----------------|
|(let ring)
|
|Gtr 2
|-----------------|-----------------|-----------------|-----------------|
|-----------------|-----------------|-----------------|-----------------|
|-----------------|-----------------|-----------------|-----------------|
|-----------------|-----------------|-----------------|-----------------|
|-----------------|-----------------|-----------------|-----------------|
|-----------------|-----------------|-----------------|-----------------|
 (let ring)

 Gtr 1
|-----------------|-----------------|-----------------|-----------------|
|-----------------|-----------------|-----------------|-----------------|
|-----------------|-----------------|-----------------|-----------------|
|-----------------|-----------------|-----------------|-----------------|
|-5-3-5-----------|-----------------|-5-3-5-----------|-----------------|
|-------0-3-0-3-5-|----33-0-3-0-3-5-|-------0-3-0-3-5-|------66-5-3-----|
|
|Gtr 2
|-----------------|-----------------|-----------------|-----------------|
|-----------------|-----------------|-----------------|-----------------|
|-----------------|-----------------|-----------------|-----------------|
|-----------------|-----------------|-----------------|-----------------|
|-----------------|-----------------|-----------------|-----------------|
|-----------------|-----------------|-----------------|-----------------|
 (let ring)

 Gtr 1
|-----------------|-----------------|-----------------|---------------------|
|-----------------|-----------------|-----------------|---------------------|
|-----------------|-----------------|-----------------|---------------------|
|-----------------|-----------------|-----------------|------------------5*-|
|-5-3-5-----------|-----------------|-----------------|--------------3-5----|
|-------0-3-0-3-5-|----33-0-3-0-3-5-|--33-0-3-0-3-5---|-33-0-3-0-3-5--------|
|
|Gtr 2
|-----------------|-----------------|-----------------|------------------------|
|-----------------|-----------------|-----------------|------------------------|
|-----------------|-----------------|-----------------|------------------------|
|-----------------|-----------------|-----------------|-x\\\\------------------|
|-----------------|-----------------|-----------------|-x\\\\------------------|
|-----------------|-----------------|-----------------|-x\\\\------------------|
 (let ring)

 Gtr 1
|-----------------|-----------------|-----------------|-----------------|
|-----------------|-----------------|-----------------|-----------------|
|-----------------|-----------------|-----------------|-----------------|
|-----------------|-----------------|-----------------|-----------------|
|-5-3-5-----------|-----------------|-5-3-5-----------|-----------------|
|-------0-3-0-3-5-|----33-0-3-0-3-5-|-------0-3-0-3-5-|------66-5-3-----|
|
|
|Gtr 2
|-----------------|-----------------|-----------------|-----------------|
|-----------------|-----------------|-----------------|-----------------|
|-----------------|-----------------|-----------------|-----------------|
|-----------------|-----------------|-----------------|-----------------|
|-5-3-5-----------|-----------------|-5-3-5-----------|-----------------|
|-------0-3-0-3-5-|----33-0-3-0-3-5-|-------0-3-0-3-5-|------66-5-3-----|

Gtr 1
|-----------------|-----------------|-----------------|---------------------|
|-----------------|-----------------|-----------------|---------------------|
|-----------------|-----------------|-----------------|---------------------|
|-----------------|-----------------|-----------------|------------------5*-|
|-5-3-5-----------|-----------------|-----------------|--------------3-5----|
|-------0-3-0-3-5-|----33-0-3-0-3-5-|--33-0-3-0-3-5---|-33-0-3-0-3-5--------|
|
|
|Gtr 2
|-----------------|-----------------|-----------------|---------------------|
|-----------------|-----------------|-----------------|---------------------|
|-----------------|-----------------|-----------------|---------------------|
|-----------------|-----------------|-----------------|------------------5*-|
|-5-3-5-----------|-----------------|-----------------|--------------3-5----|
|-------0-3-0-3-5-|----33-0-3-0-3-5-|--33-0-3-0-3-5---|-33-0-3-0-3-5--------|

Gtr 1
|-----------------|-----------------|-----------------|-----------------|
|-----------------|-----------------|-----------------|-----------------|
|-----------------|-----------------|-----------------|-----------------|
|-----------------|-----------------|-----------------|-----------------|
|-5-3-5-----------|-----------------|-5-3-5-----------|-----------------|
|-------0-3-0-3-5-|----33-0-3-0-3-5-|-------0-3-0-3-5-|------66-5-3-----|
|
|
|Gtr 2
|-----------------|-----------------|-----------------|-----------------|
|-----------------|-----------------|-----------------|-----------------|
|-----------------|-----------------|-----------------|-----------------|
|-----------------|-----------------|-----------------|-----------------|
|-5-3-5-----------|-----------------|-5-3-5-----------|-----------------|
|-------0-3-0-3-5-|----33-0-3-0-3-5-|-------0-3-0-3-5-|------66-5-3-----|

Gtr 1
|-----------------|-----------------|-----------------|---------------------|
|-----------------|-----------------|-----------------|---------------------|
|-----------------|-----------------|-----------------|---------------------|
|-----------------|-----------------|-----------------|------------------5*-|
|-5-3-5-----------|-----------------|-----------------|--------------3-5----|
|-------0-3-0-3-5-|----33-0-3-0-3-5-|--33-0-3-0-3-5---|-33-0-3-0-3-5--------|
|
|
|Gtr 2
|-----------------|-----------------|-----------------|---------------------|
|-----------------|-----------------|-----------------|---------------------|
|-----------------|-----------------|-----------------|---------------------|
|-----------------|-----------------|-----------------|------------------5*-|
|-5-3-5-----------|-----------------|-----------------|--------------3-5----|
|-------0-3-0-3-5-|----33-0-3-0-3-5-|--33-0-3-0-3-5---|-33-0-3-0-3-5--------|

Breakdown pt 2 (acoustic)
Gtr 1 only
|-----------------|-----------------|-----------------|-----------------|
|-----6---5-------|-6---5-------6---|-----6---5-------|-6---------------|
|-----7---7-------|-7---7-------7---|-----7---7-------|-7---------------|
|---7---7---7---7-|---7---7---7---7-|---7---7---7---7-|-----------------|
|-5-----------5---|---------5-------|-5-----------5---|-----------------|
|-----------------|-----------------|-----------------|-----------------|

|-5-------5-------|-5-5---5---5-5-5-|-3------3------|-3-3---3---3-3-3-|
|-6-------6-------|-6-6---6---6-6-6-|-3------3------|-3-3---3---3-3-3-|
|-7-------7-------|-7-7---7---7-7-7-|-5------5------|-5-5---5---5-5-5-|
|-7-------7-------|-7-7---7---7-7-7-|-5------5------|-5-5---5---5-5-5-|
|-5-------5-------|-5-5---5---5-5-5-|-3------3------|-3-3---3---3-3-3-|
|-----------------|-----------------|---------------|-----------------|

(distorted)
Gtr 1
|-----------------|-----------------|-----------------|-----------------|
|-----------------|-----------------|-----------------|-----------------|
|-----------------|-----------------|-----------------|-----------------|
|-8-------8--8-7--|-5---------------|-----------------|-----------------|
|-8-------8--8-7--|-5---------------|-0-0-0-0-0-0-0-0-|-0-0-0-0-0-0-0-0-|
|-8-------8--8-7--|-5---------------|-0-0-0-0-0-0-0-0-|-0-0-0-0-0-0-0-0-|
|
|Gtr 2
|-----------------|-----------------|-----------------|-----------------|
|-----------------|-----------------|-----------------|-----------------|
|-----------------|-----------------|-----------------|-----------------|
|-8-------8--8-7--|-5---------------|-----------------|-----------------|
|-8-------8--8-7--|-5---------------|-0-0-0-0-0-0-0-0-|-0-0-0-0-0-0-0-0-|
|-8-------8--8-7--|-5---------------|-0-0-0-0-0-0-0-0-|-0-0-0-0-0-0-0-0-|


 Gtr1
|-----------------|-----------------|-----------------|-----------------|
|-----------------|-----------------|-----------------|-----------------|
|-----------------|-----------------|-----------------|-----------------|
|-----------------|-----------------|-----------------|-----------------|
|-0-0-0-0-0-0-0-0-|-0-0-0-0-0-0-0-0-|-0-0-0-0-0-0-0-0-|-0-0-0-0-0-0-0-0-|
|-0-0-0-0-0-0-0-0-|-0-0-0-0-0-0-0-0-|-0-0-0-0-0-0-0-0-|-0-0-0-0-0-0-0-0-|
|
|
|Gtr 2
|-----------------|-----------------|-----------------|-----------------|
|-----------------|-----------------|-----------------|-----------------|
|-----------------|-----------------|-----------------|-----------------|
|-----------------|-----------------|-----------------|-----------------|
|-0-0-0-0-0-0-0-0-|-0-0-0-0-0-0-0-0-|-0-0-0-0-0-0-0-0-|-0-0-0-0-0-0-0-0-|
|-0-0-0-0-0-0-0-0-|-0-0-0-0-0-0-0-0-|-0-0-0-0-0-0-0-0-|-0-0-0-0-0-0-0-0-|

Guitar Fill
Gtr 3
|--------------------------------------------------------------------------|
|-----10h13p10----10h13p10----10h13p10----10h13p10----10h13p10-------------|
|-12fb--------12fb---------12fb---------12fb--------12fb---------12p10-----|
|-------------------------------------------------------------------12-----|
|--------------------------------------------------------------------------|
|--------------------------------------------------------------------------|

Chorus
 Gtr 1
|-----------------|-----------------|---------------|-----------------|
|-----------------|-----------------|---------------|-----------------|
|-7-------7-------|-7-7---7---7-7-7-|-5------5------|-5-5---5---5-5-5-|
|-7-------7-------|-7-7---7---7-7-7-|-5------5------|-5-5---5---5-5-5-|
|-5-------5-------|-5-5---5---5-5-5-|-3------3------|-3-3---3---3-3-3-|
|-----------------|-----------------|---------------|-----------------|
|
|
|Gtr 2
|-----------------|-----------------|---------------|-----------------|
|-----------------|-----------------|---------------|-----------------|
|-7-------7-------|-7-7---7---7-7-7-|-5------5------|-5-5---5---5-5-5-|
|-7-------7-------|-7-7---7---7-7-7-|-5------5------|-5-5---5---5-5-5-|
|-5-------5-------|-5-5---5---5-5-5-|-3------3------|-3-3---3---3-3-3-|
|-----------------|-----------------|---------------|-----------------|

 Gtr 1
|-----------------|-----------------|-----------------|-----------------|
|-----------------|-----------------|-----------------|-----------------|
|-----------------|-----------------|-----------------|-----------------|
|-8-------8--8-7--|-5---------------|-0---------------|-----------------|
|-8-------8--8-7--|-5---------5-5-5-|-0---0-0-0-0-0-0-|-0-0-0-0-0-0-0-0-|
|-8-------8--8-7--|-5---------5-5-5-|-0---0-0-0-0-0-0-|-0-0-0-0-0-0-0-0-|
|
|Gtr 2
|-----------------|-----------------|-----------------|-----------------|
|-----------------|-----------------|-----------------|-----------------|
|-----------------|-----------------|-----------------|-----------------|
|-8-------8--8-7--|-5---------------|-0---------------|-----------------|
|-8-------8--8-7--|-5---------5-5-5-|-0---0-0-0-0-0-0-|-0-0-0-0-0-0-0-0-|
|-8-------8--8-7--|-5---------5-5-5-|-0---0-0-0-0-0-0-|-0-0-0-0-0-0-0-0-|

Gtr 1
|-----------------|-----------------|---------------|-----------------|
|-----------------|-----------------|---------------|-----------------|
|-7-------7-------|-7-7---7---7-7-7-|-5------5------|-5-5---5---5-5-5-|
|-7-------7-------|-7-7---7---7-7-7-|-5------5------|-5-5---5---5-5-5-|
|-5-------5-------|-5-5---5---5-5-5-|-3------3------|-3-3---3---3-3-3-|
|-----------------|-----------------|---------------|-----------------|
|
|
|Gtr 2
|-----------------|-----------------|---------------|-----------------|
|-----------------|-----------------|---------------|-----------------|
|-7-------7-------|-7-7---7---7-7-7-|-5------5------|-5-5---5---5-5-5-|
|-7-------7-------|-7-7---7---7-7-7-|-5------5------|-5-5---5---5-5-5-|
|-5-------5-------|-5-5---5---5-5-5-|-3------3------|-3-3---3---3-3-3-|
|-----------------|-----------------|---------------|-----------------|

 Gtr 1
|-----------------|-----------------|---------------|--------------------|
|-----------------|-----------------|---------------|--------------------|
|-----------------|-----------------|---------------|--------------------|
|-8-------8--8-7--|-5---------------|-0---------5-7-|---8---7-----5--5h7-|
|-8-------8--8-7--|-5---------5-5-5-|-0-------------|--------------------|
|-8-------8--8-7--|-5---------5-5-5-|-0-----0-0-----|-0---0---0-0---0----|
|
|Gtr 2
|-----------------|-----------------|---------------|--------------------|
|-----------------|-----------------|---------------|--------------------|
|-----------------|-----------------|-----------4-5-|---7---5-----4--4h5-|
|-8-------8--8-7--|-5---------------|-0-------------|--------------------|
|-8-------8--8-7--|-5---------5-5-5-|-0-------------|--------------------|
|-8-------8--8-7--|-5---------5-5-5-|-0-----0-0-----|-0---0---0-0---0----|


Outro
Gtr 1
|-----------------|-----------------|-----------------|-----------------|
|-----------------|-----------------|-----------------|-----------------|
|-9---------------|-10--------------|-10--9-----------|-------------9---|
|-----------------|-----------------|---------12-10---|----12-----------|
|-----------------|-----------------|-----------------|-----------------|
|-----------------|-----------------|-----------------|-----------------|
|
|
|Gtr 2
|-----------------|-----------------|-----------------|-----------------|
|-8---------------|-10--------------|-10--8-----------|-------------8---|
|-----------------|-----------------|---------10--9---|----10-----------|
|-----------------|-----------------|-----------------|-----------------|
|-----------------|-----------------|-----------------|-----------------|
|-----------------|-----------------|-----------------|-----------------|
|
|
|Gtr 3
|-----------------|-----------------|-----------------|-----------------|
|-----------------|-----------------|-----------------|-----------------|
|-7-------7-------|-7-7---7---7-7-7-|-5-------5-------|-5-5---5---5-5-5-|
|-7-------7-------|-7-7---7---7-7-7-|-5-------5-------|-5-5---5---5-5-5-|
|-5-------5-------|-5-5---5---5-5-5-|-3-------3-------|-3-3---3---3-3-3-|
|-----------------|-----------------|-----------------|-----------------|

Gtr 1
|-----------------|-----------------|
|-----------------|-----------------|
|-10----9----12---|------10-12-10-9-|
|-----------------|-12--------------|
|-----------------|-----------------|
|-----------------|-----------------|
|
|
|Gtr 2
|-----------------|-----------------|
|-10----8----11---|------10-11-10-8-|
|-----------------|-10--------------|
|-----------------|-----------------|
|-----------------|-----------------|
|-----------------|-----------------|
|
|
|Gtr 3
|-----------------|-----------------|
|-----------------|-----------------|
|-----------------|-----------------|
|-8-----------7---|-5---------------|
|-8-----------7---|-5-----------5-5-|
|-8-----------7---|-5-----------5-5-|

(acoustic)
|-----------------|
|-6---------------|
|-7---------------|
|-7---------------|
|-----------------|
|-----------------|

Rock On!!!

            
            
Suggest correction
Creating personal tab
Creating personal tab
You can edit any tab online and save it as your Personal.

You can edit, replace or remove any tab part or add personal notes – all changes will be seen only by you.

Personal tabs can be accessed anytime from any device, even offline.
Learn more »
Give kudos to tab author, rate the tab!
1 2 3 4 5
comments
print report bad tab
guest
You may want to rate the tab now too:
select rating
Wanna post a correction for this tab? Suggest correction