Oops, an error
Loading. Please wait.

Apocalyptic Modified Blues tab

1,296 views 3 this week
no commentswrite comment
1 2 3 4 5
x 5
add to favorites
×
Save as Personal and add changes to this tab that will be seen only by you. Learn more ›
×
You can save this tab as Personal to edit and correct it or add notes. All changes will be seen only by you. Learn more »
launch autoscroll
font size
0
reset
how to read this tab
guitar tuner
edit
Autoscroll
slow
fast
+/-
esc
set tempo
stop
                         ----------------------------------------
                         |Apocalyptic Modified Blues - Corb Lund|
                         |                                      |
                         ----------------------------------------

Arist:	Corb Lund and the Hurtin' Albertans
Song:	Apocalyptic Modified Blues
Album:	Five Dollar Bill


	This is a great song :D and I hope that you guys out there enjoy it and rate and 
:D
	Special thanks goes out to Youtubers Wevodau and ragusroung, your videos helped me tab 
this song!


       Standard Tuning    Capo 2nd fret

Intro:
                                                                                 Well gather...
e|-----------------------|---------------------|-----------------------|-----------------|
B|-----------------------|---------------------|-----------------------|-----------------|
G|---2---2---2-----------|---2---2---2---------|---2---2---2-----------|---2---2---2---2-|
D|---2---2---2-----------|---2---2---2---------|---2---2---2-----------|---2---2---2---2-|
A|-0-------0---0-0h1-0h1-|-0-------0---0h1p0h1-|-0-------0---0-0h1-0h1-|-0-------0-------|
E|-----0-----------------|-----0---------------|-----0-----------------|-----0-------0---|


Verse 1:

Riff 1:
e|-----------------------------------------------------------------|
B|-----------------------------------------------------------------|
G|---2---2---2---2---2---2---2---2---2---2---2---2---2---2---2---2-|
D|---2---2---2---2---2---2---2---2---2---2---2---2---2---2---2---2-|
A|-0-------0-------0-------0-------0-------0-------0-------0-------|
E|-----0-------0-------0-------0-------0-------0-------0-------0---|
PM . . . . . . . . . . . . . . . . . . . . . . . . . . . . . . . .

Riff 2:

    Dm  Dm  Dm  Dm  Dm  Dm  Dm  Dm
e|---1---1---1---1---1---1---1---1-|
B|---3---3---3---3---3---3---3---3-|
G|---2---2---2---2---2---2---2---2-|
D|-0-------0-------0-------0-------|
A|-----0-------0-------0-------0---|
E|---------------------------------|

Riff 3:
e|-----------------------|-----------------|
B|-----------------------|-----------------|
G|---2---2---2-----------|---2---2---2---2-|
D|---2---2---2-----------|---2---2---2---2-|
A|-0-------0---0-0h1-0h1-|-0-------0-------|
E|-----0-----------------|-----0-------0---|


e|-----------------------------------------------------------------|
B|-----------------------------------------------------------------|
G|---2---2---2---2---2---2---2---2---2---2---2---2---2---2---2---2-|
D|---2---2---2---2---2---2---2---2---2---2---2---2---2---2---2---2-|
A|-0-------0-------0-------0-------0-------0-------0-------0-------|
E|-----0-------0-------0-------0-------0-------0-------0-------0---|
PM . . . . . . . . . . . . . . . . . . . . . . . . . . . . . . . .


    Dm  Dm  Dm  Dm  Dm  Dm  Dm  Dm
e|---1---1---1---1---1---1---1---1-|-----------------------|-----------------|
B|---3---3---3---3---3---3---3---3-|-----------------------|-----------------|
G|---2---2---2---2---2---2---2---2-|---2---2---2-----------|---2---2---2---2-|
D|-0-------0-------0-------0-------|---2---2---2-----------|---2---2---2---2-|
A|-----0-------0-------0-------0---|-0-------0---0-0h1-0h1-|-0-------0-------|
E|---------------------------------|-----0-----------------|-----0-------0---|

Riff 4:

e|---------------|---0-1-0---|
B|---------------|-3-------3-|
G|---------------|-----------|
D|-2-2-2h5-2-0-2-|-----------|
A|---------------|-----------|
E|---------------|-----------|

e|-----------------------|-----------------|
B|-----------------------|-----------------|
G|---2---2---2-----------|---2---2---2---2-|
D|---2---2---2-----------|---2---2---2---2-|
A|-0-------0---0-0h1-0h1-|-0-------0-------|
E|-----0-----------------|-----0-------0---|


For Verse 2 repeat everything the same up until Riff 4, then play:


e|-----------------------|-------------|
B|-----------------------|-------------|
G|---2---2---2-----------|---2---2---2-|
D|---2---2---2-----------|---2---2---2-|
A|-0-------0---0-0h1-0h1-|-0-------0---|
E|-----0-----------------|-----0-------|

Solo(might not be 100%, but I tried):

e|--------------------------------|--------------------------------|----------------------------|
B|--------------------------------|--------------------------------|----------------------------|
G|-------6-7-6h7p6---6-7-6-7-7/9\-|------6-7-6h7p6-----------------|-------------8-9~-7---------|
D|-2/7-8-----------7--------------|-/7-8-----------7-7-5-5h7-5-3-2-|-0-2-3-5-5h7--------8-7-5-8-|
A|--------------------------------|--------------------------------|----------------------------|
E|--------------------------------|--------------------------------|----------------------------|

e|------------------------------|---------------|---0-1-0---|
B|------------------------------|---------------|-3-------3-|
G|------------------------------|---------------|-----------|
D|-7---7---7h8p7-5-8-7---7---5/-|-2-2-2h5-2-0-2-|-----------|
A|---0---0-------------0---0----|---------------|-----------|
E|------------------------------|---------------|-----------|


e|-------------------|-----------------------------|
B|-------------------|-----------------------------|
G|---2-------------2-|---------2-----------2-------|
D|---2-------------2-|---------2-----------2-------|
A|-0-------0h1-1p0---|-0h1-1p0-----0h1-1p0-----0h1-|
E|-------------------|-----------------------------|

Theres a little bass solo that I cant really figure out cause its kinda hard to make out 
the tambourine,
but you could probably just lightly hit the A and E strings.


Verse 3:

e|-----------------------------------------------------------------|
B|-----------------------------------------------------------------|
G|---2---2---2---2---2---2---2---2---2---2---2---2---2---2---2---2-|
D|---2---2---2---2---2---2---2---2---2---2---2---2---2---2---2---2-|
A|-0-------0-------0-------0-------0-------0-------0-------0-------|
E|-----0-------0-------0-------0-------0-------0-------0-------0---|
PM . . . . . . . . . . . . . . . . . . . . . . . . . . . . . . . .

    Dm  Dm  Dm  Dm  Dm  Dm  Dm  Dm
e|---1---1---1---1---1---1---1---1-|
B|---3---3---3---3---3---3---3---3-|
G|---2---2---2---2---2---2---2---2-|
D|-0-------0-------0-------0-------|
A|-----0-------0-------0-------0---|
E|---------------------------------|


e|-----------------------|-----------------|
B|-----------------------|-----------------|
G|---2---2---2-----------|---2---2---2---2-|
D|---2---2---2-----------|---2---2---2---2-|
A|-0-------0---0-0h1-0h1-|-0-------0-------|
E|-----0-----------------|-----0-------0---|

Outro:
e|---------------|---0-1-0---|
B|---------------|-3-------3-|
G|---------------|-----------|
D|-2-2-2h5-2-0-2-|-----------|
A|---------------|-----------|
E|---------------|-----------|


e|-----------------------|-----------------|
B|-----------------------|-----------------|
G|---2---2---2-----------|---2---2---2---2-|
D|---2---2---2-----------|---2---2---2---2-|
A|-0-------0---0-0h1-0h1-|-0-------0-------|
E|-----0-----------------|-----0-------0---|

e|---------------|-----0---1---0-----|------5-|
B|---------------|-3-------------3/0-|----2-2-|
G|---------------|-------------------|---2--2-|
D|-2-2-2h5-2-0-2-|-0-0-0-0-0-0-0-0---|--2---2-|
A|---------------|-------------------|-0------|
E|---------------|-------------------|--------|

            Riff 1
Well Gather round me all you sinners, all you gamblers and card sharps

You drinkers and abusers, all you fighters at your hearts
                   Riff 2
You might pay heed...
                                                        Riff 3
Cuz ain't nothin' ever walked the earth like this before

         Riff 1

Have you made your peace with Odin and with Baal and Aphrodite

Cuz there's a triple headed serpent here with one hell of a bite
                 Riff 2
And he knows you...
                                          Riff 3|  Riff 4|  Riff 3
He knows you and laughs and locks the door


         Riff 1
The time has come to learn Arabic for to study on your fate

In verse of old Mohammed and the prophets of the lake
                Riff 2
Of fire and ice...
                                        Riff 3
And sulphur, blood and demon acts of war

             Riff 1
So take that little .410 bird gun and them crooked liars' dice

They'll be of no use to you in some chanceless afterlife
                    Riff 2
But roll them bones...
                                                   Riff 3| Riff 4| Riff 3
You oughta roll 'em like you've never rolled before
                                     Solo
(wahid, ithinin, thalatha, arba'a...)

Bass Solo
Well Gather round me all you sinners, all you gamblers and card sharps

You drinkers and abusers, all you fighters at your hearts

You might pay heed...

Cuz ain't nothin' ever walked the earth like this before

         Riff 1
Beast of field will be upon you, bird of air pluck out your eye

The mercy of the nations will be deaf unto your cry
                 Riff 2
And on that day...
                                             Riff 3|   Outro
Ten horns upon the beast shall hate the whore

~~~~~~~~~~~~~~~~~~~~~~~~~~~~~~~~~~~~~~~~~~~~~~~~~~~~~~~~~~~~~~~~~~~~~~~~~~~~
Pm .:Palm Mute
\   :slide up
/   :slide down
h   :hammer-on
p   :pull-off

            
            
Suggest correction
Creating personal tab
Creating personal tab
You can edit any tab online and save it as your Personal.

You can edit, replace or remove any tab part or add personal notes – all changes will be seen only by you.

Personal tabs can be accessed anytime from any device, even offline.
Learn more »
comments
print report bad tab
guest
You may want to rate the tab now too:
select rating
Wanna post a correction for this tab? Suggest correction