Oops, an error
Loading. Please wait.

No Frontiers tab

version 2
version 2

Whole song

Interactive

73 views 1 this week
no commentswrite comment
1 2 3 4 5
3 more votes to show rating
add to favorites
×
Save as Personal and add changes to this tab that will be seen only by you. Learn more ›
×
You can save this tab as Personal to edit and correct it or add notes. All changes will be seen only by you. Learn more »
launch autoscroll
font size
0
reset
how to read this tab
guitar tuner
edit
Autoscroll
slow
fast
+/-
esc
set tempo
stop
Author
Difficulty
[Intro]
e|--4--4--6--4--4--4--4--4--6--4--4--4--|--4--4--4--4--4--4--------4--2--1--2-----------------|
B|--------------------------------------|--------------------2--2-----------------------------|
G|--------------------------------------|-----------------------------------------------------|
D|--------------------------------------|-----------------------------------------------------|
A|--------------------------------------|-----------------------------------------------------|
E|--------------------------------------|-----------------------------------------------------|
                                          If life is a river, and you heart is a boat

e|--1--1--1--1--1--1--2--1--------------|--4--4--4--4--4--4--4-----4--6--2--1-----------------|
B|--------------------------4--4--2--1--|-----------------------2--------------4--------------|
G|--------------------------------------|-----------------------------------------------------|
D|--------------------------------------|-----------------------------------------------------|
A|--------------------------------------|-----------------------------------------------------|
E|--------------------------------------|-----------------------------------------------------|
And just like a water baby, baby, born to float / 
                                          If a life is a wild wing, that blows way on high


e|--1--1--1--1--1--1-----------------|--2--2--1--2--4--2--1-----2--1--------1-----------------|
B|--------------------2--4-----2--1--|-----------------------2--------4--2-----4--4--2--2-----|
G|--------------------------2--------|--------------------------------------------------------|
D|-----------------------------------|--------------------------------------------------------|
A|-----------------------------------|--------------------------------------------------------|
E|-----------------------------------|--------------------------------------------------------|
And your heart is Amelia, dying to fly / 
                                  Heaven knows, no frontiers and I've seen heaven in your eyes

e|--4--4--4--4--4--4--4-----4--2--1--2--|--1--1--1--1--1--1--1--4--4--4--2--1-----------------|
B|-----------------------2--------------|---------------------------------------4-------------|
G|--------------------------------------|-----------------------------------------------------|
D|--------------------------------------|-----------------------------------------------------|
A|--------------------------------------|-----------------------------------------------------|
E|--------------------------------------|-----------------------------------------------------|
And if life is a bar room, in which we must wait / 
                                          Round the man with his finger, on the ivory gates

e|--4--4--4--4--4--4--4-----4--6--2--1-----|--1--1--1--1--1--1--------------------------------|
B|-----------------------2--------------4--|---------------------2--4-----2--1----------------|
G|-----------------------------------------|---------------------------2----------------------|
D|-----------------------------------------|--------------------------------------------------|
A|-----------------------------------------|--------------------------------------------------|
E|-----------------------------------------|--------------------------------------------------|
Where were sing until down, of our fears and of fates / 
                                       And we stack all the dead men, in self-addressed crates

[Chorus]
e|--1--1--------------|--4--4--4--4--4--2--1------|--2--2--2--2--1-----1----------------------|
B|--------4--4--2--2--|------------------------4--|-----------------------4-------------------|
G|--------------------|---------------------------|-------------------------------------------|
D|--------------------|---------------------------|-------------------------------------------|
A|--------------------|---------------------------|-------------------------------------------|
E|--------------------|---------------------------|-------------------------------------------|
  In your eyes, faint / As the singing of a dark / The somehow this black night 

e|--------------------|------------------0--|--4--4--4--4--2--1------|--2--2--2--1-----1------|
B|--2--2--2--1--2-----|---------------------|---------------------4--|--------------4---------|
G|-----------------2--|--0--2--2--2--0------|------------------------|------------------------|
D|--------------------|---------------------|------------------------|------------------------|
A|--------------------|---------------------|------------------------|------------------------|
E|--------------------|---------------------|------------------------|------------------------|
Feel warmer for the spark / Warmer for the spark / 
                                       To hold us till the day / When fear will lose it's grip

e|-----------------------|--4--2--1--1------|--4--2--1----|-----2--1--------1------------------|
B|--2--2--2--1--2--1-----|---------------4--|-------------|--2--------4--2-----4--4--2--2------|
G|--------------------2--|------------------|-------------|------------------------------------|
D|-----------------------|------------------|-------------|------------------------------------|
A|-----------------------|------------------|-------------|------------------------------------|
E|-----------------------|------------------|-------------|------------------------------------|
  And heaven has it's ways / Heaven know / No frontiers / And I've seen heaven in your eyes

[Bridge]
e|---------------------------------------------------------------------------------------------|
B|--4--2--2--1--2--1--2--4--6--4--4--4--2--2---------------------------------------------------|
G|---------------------------------------------------------------------------------------------|
D|---------------------------------------------------------------------------------------------|
A|---------------------------------------------------------------------------------------------|
E|---------------------------------------------------------------------------------------------|

e|---------------------------------------------------------------------------------------------|
B|--2-3--2--2--0--4--4--2--2--1--1--1----------------------------------------------------------|
G|-------------------------------------4--4--4--2--2--2--4-------------------------------------|
D|---------------------------------------------------------------------------------------------|
A|---------------------------------------------------------------------------------------------|
E|---------------------------------------------------------------------------------------------|

e|--8--9--8--8--9--8--6--6--|--6--6--6--6--6--4--4--4--2--2--2--1------------------------------|
B|--------------------------|---------------------------------------4--4--4--2--4-----2--4--2--|
G|--------------------------|------------------------------------------------------2-----------|
D|--------------------------|------------------------------------------------------------------|
A|--------------------------|------------------------------------------------------------------|
E|--------------------------|------------------------------------------------------------------|

(Sharon)
e|--1--1--------------|--4--4--4--4--4--2--1-----|--2--2--2--2--1-----1------------------------|
B|--------4--4--2--2--|-----------------------4--|-----------------4---------------------------|
G|--------------------|--------------------------|---------------------------------------------|
D|--------------------|--------------------------|---------------------------------------------|
A|--------------------|--------------------------|---------------------------------------------|
E|--------------------|--------------------------|---------------------------------------------|
In your eyes, faint / As the singing of a lark / The somehow this black night 

e|--------------------|------------------1--|--4--4--4--4--2--1------|--2--2--2--1-----1-------|
B|--2--2--2--1--2-----|---------------------|---------------------4--|--------------4----------|
G|-----------------2--|--0--2--2--2--0------|------------------------|-------------------------|
D|--------------------|---------------------|------------------------|-------------------------|
A|--------------------|---------------------|------------------------|-------------------------|
E|--------------------|---------------------|------------------------|-------------------------|
Feel warmer for the spark / Warmer for the spark / To hold us till the day / When fear will lose it's grip

e|-----------------------|------------------1--|--4--4--4--2--1------|--2--2--2--1-----1-------|
B|--2--2--2--1--2--1-----|---------------------|------------------4--|--------------4----------|
G|--------------------2--|--0--2--2--2--0------|---------------------|-------------------------|
D|-----------------------|---------------------|---------------------|-------------------------|
A|-----------------------|---------------------|---------------------|-------------------------|
E|-----------------------|---------------------|---------------------|-------------------------|
And heaven has it's ways / And heaven has it's ways / 
                                     When all will harmonize / And you know what's in our hearts

e|-----------------------|--4--2--1--1-----|--4--2--1--|-----2--1--------1--------------------|
B|--2--2--2--1--2--1-----|--------------4--|-----------|--2--------4--2-----4--4--2--2--------|
G|--------------------2--|-----------------|-----------|--------------------------------------|
D|-----------------------|-----------------|-----------|--------------------------------------|
A|-----------------------|-----------------|-----------|--------------------------------------|
E|-----------------------|-----------------|-----------|--------------------------------------|
The dream will realize / Heaven knows / No frontiers / And I've seen heaven in your eyes


e|--4--2--1--1-----|--4--2--1--------|-----2--1--------1---------------------------------------|
B|--------------4--|-----------4--3--|--2--------4--2-----4--4--2--2---------------------------|
G|-----------------|-----------------|---------------------------------------------------------|
D|-----------------|-----------------|---------------------------------------------------------|
A|-----------------|-----------------|---------------------------------------------------------|
E|-----------------|-----------------|---------------------------------------------------------|
        Heaven knows / No frontiers / And I've seen heaven in your eyes

(Caroline)
e|--6--6--------------|--9--9--9--9--9--7--6------|--7--7--7--7--6-----6-----------------------|
B|--------9--9--7--7--|------------------------9--|-----------------9--------------------------|
G|--------------------|---------------------------|--------------------------------------------|
D|--------------------|---------------------------|--------------------------------------------|
A|--------------------|---------------------------|--------------------------------------------|
E|--------------------|---------------------------|--------------------------------------------|
In your eyes, faint / As the singing of a lark / The somehow this black night 

e|--------------------|------------------6--|--9--9--9--9--7--6------|--7--7--7--6-----6-------|
B|--2--2--2--1--2-----|---------------------|---------------------9--|--------------9----------|
G|-----------------2--|--5--7--7--7--5------|------------------------|-------------------------|
D|--------------------|---------------------|------------------------|-------------------------|
A|--------------------|---------------------|------------------------|-------------------------|
E|--------------------|---------------------|------------------------|-------------------------|
Feel warmer for the spark / Warmer for the spark / 
                                        To hold us till the day / When fear will lose it's grip

e|-----------------------|------------------6--|--9--9--9--7--6------|--7--7--7--6-----6--------|
B|--7--7--7--6--7--6-----|---------------------|------------------9--|--------------9-----------|
G|--------------------7--|--5--7--7--7--5------|---------------------|--------------------------|
D|-----------------------|---------------------|---------------------|--------------------------|
A|-----------------------|---------------------|---------------------|--------------------------|
E|-----------------------|---------------------|---------------------|--------------------------|
And heaven has it's ways / And heaven has it's ways / 
                                    When all will harmonise / And you know what's in our hearts

e|-----------------------|--9--7--6--6------|--9--7--6--|-----7--7--------6---------------------|
B|--7--7--7--6--7--6-----|---------------9--|-----------|--7--------9--7-----9--9--7--7---------|
G|--------------------7--|------------------|-----------|---------------------------------------|
D|-----------------------|------------------|-----------|---------------------------------------|
A|-----------------------|------------------|-----------|---------------------------------------|
E|-----------------------|------------------|-----------|---------------------------------------|
    The dream will realize / Heaven knows / No frontiers / And I've seen heaven in your eyes

e|--9--7--6--6-----|--9--7--6---------|-----7--6--------6---------------------------------------|
B|--------------9--|------------9--8--|--7--------9--7-----9--9--7--7---------------------------|
G|-----------------|------------------|---------------------------------------------------------|
D|-----------------|------------------|---------------------------------------------------------|
A|-----------------|------------------|---------------------------------------------------------|
E|-----------------|------------------|---------------------------------------------------------|
       Heaven knows / No frontiers / And I've seen heaven in your eyes

            
            
Suggest correction
Creating personal tab
Creating personal tab
You can edit any tab online and save it as your Personal.

You can edit, replace or remove any tab part or add personal notes – all changes will be seen only by you.

Personal tabs can be accessed anytime from any device, even offline.
Learn more »
Give kudos to tab author, rate the tab!
1 2 3 4 5
comments
print report bad tab
guest
You may want to rate the tab now too:
select rating
Wanna post a correction for this tab? Suggest correction