Oops, an error
Loading. Please wait.
We have Chord Pro version of Runaway.
It's the closest thing you can get to the original song and it has interactive parts. Check out the tab »
×
1,905 views 21 this week
no commentswrite comment
1 2 3 4 5
3 more votes to show rating
add to favorites
×
Save as Personal and add changes to this tab that will be seen only by you. Learn more ›
×
You can save this tab as Personal to edit and correct it or add notes. All changes will be seen only by you. Learn more »
launch autoscroll
font size
0
reset
how to read this tab
guitar tuner
edit
Autoscroll
slow
fast
+/-
esc
set tempo
stop
Author
Difficulty
intermediate
"Runaway"

LEAD
e|------5-8---8-5-7-5-----------------------------------------------------|
B|--------------------8-6--6-5-6-6-5-6-6-5-6------------------------------|
G|------------------------------------------------------------------------|
D|------------------------------------------------------------------------|
A|------------------------------------------------------------------------|
E|------------------------------------------------------------------------|


e|------5-8---8-5-7-5-------8/10-8-6-5----------------------------------------|
B|--------------------8-6-6----------6----------------------------------------|
G|----------------------------------------------------------------------------|
D|----------------------------------------------------------------------------|
A|----------------------------------------------------------------------------|
E|----------------------------------------------------------------------------|


Intro : F or Fb (4x)
verse: F or Fb-G-Bb (use standard powerchords)
refrain: Dm-G-Bb-C
Chorus : F or Fb-G-Bb (use standard powerchords)

Say it's true, there's nothing like me and you
I'm not alone, tell me you feel it too

And I would run away
I would run away, yeah..., yeah
I would run away
I would run away with you

Cause I am falling in love with you
No never I'm never gonna stop
Falling in love with you

Close the door, lay down upon the floor
And by candlelight, make love to me through the night
(through the night, through the night...)

Cause I have run away
I have run away, yeah..., yeah
I have run away, run away
I have run away with you

Cause I am falling in love (falling in love) with you
No never I'm never gonna stop
Falling in love with you...
With you...

And I would runaway
I would runaway, yeah..., yeah
I would runaway (runaway)
I would runaway with you

Cause I am falling in love (falling in love) with you
No never I'm never gonna stop
Falling in love with you...

Falling in love (falling in love) with you
No never I'm never gonna stop falling in love with you

With you, my love, with you...
na ni na ni na na...
(With you, with you, with you, with you)

[Fade out]\


tnx ^_^if u hav a some comments email me@ 7mendoza13@gmail.com

            
            
Suggest correction
Creating personal tab
Creating personal tab
You can edit any tab online and save it as your Personal.

You can edit, replace or remove any tab part or add personal notes – all changes will be seen only by you.

Personal tabs can be accessed anytime from any device, even offline.
Learn more »
Give kudos to tab author, rate the tab!
1 2 3 4 5
comments
print report bad tab
guest
You may want to rate the tab now too:
select rating
Wanna post a correction for this tab? Suggest correction