Oops, an error
Loading. Please wait.

Somebody For Someone tab

version 1
version 1

Whole song

Interactive

878 views 1 this week
1 commentread comment
1 2 3 4 5
1 last vote to show rating
add to favorites
×
Save as Personal and add changes to this tab that will be seen only by you. Learn more ›
×
You can save this tab as Personal to edit and correct it or add notes. All changes will be seen only by you. Learn more »
launch autoscroll
font size
0
reset
how to read this tab
guitar tuner
edit
Autoscroll
slow
fast
+/-
esc
set tempo
stop
Author
Title: Somebody for Someone
    by: The Corrs --> "In Blue"
Tabbed by: E.J. Gemzon --> clapton_riff@yahoo.com


chords u need:

F   133211
Bb  x13331
Eb  x68886

Here are some licks done by 
 an elecric guitar (with light distortion)
  
  1)
e-------------------|
b-------------------|
g-------------------|
d---------1h3-------|
a---1--3------------|
E-------------------|

  2)
e-----------------|
b-----------------|
g-----------------|
d-----------------|
a---1--3--3-------|
E-----------------|

Intro, Verses, Chorus, Instrumentals:
   F, Bb, Eb, F

(The strumming sounds best when you use
 a 12-string guitar.)


Instrumentals:

e-----6p5-----------6p5----------|
b---6-----6--4----6-----6--4-----|
g--------------------------------|
d--------------------------------|
a--------------------------------|
E--------------------------------|

e----6p5----------6p5-6--8--6--5----|
b--6-----6--4---6----------------6--|
g-----------------------------------|
d-----------------------------------|
a-----------------------------------|
E-----------------------------------|

  That's it folks!
  Send questions or comments or anything
  to me via an e-mail, they're welcome.

            
            
Suggest correction
Creating personal tab
Creating personal tab
You can edit any tab online and save it as your Personal.

You can edit, replace or remove any tab part or add personal notes – all changes will be seen only by you.

Personal tabs can be accessed anytime from any device, even offline.
Learn more »
Give kudos to tab author, rate the tab!
1 2 3 4 5
comments
print report bad tab
1 comment total.
0 reply
griff1987 55 Oct 14, 2003 08:00 PM

dunno bout the elec.guitar bits but the chords are correct
The instrumental goes:
e|--6--5-----------|
B|--------6--4-----|
G|--------------5--|
D|-----------------| etc.
A|-----------------|
E|-----------------|

guest
You may want to rate the tab now too:
select rating
Wanna post a correction for this tab? Suggest correction