Oops, an error
Loading. Please wait.

Cavorting tab

version 3
version 3

Whole song

  • Only proper version of this tab thats out there an... Show more
280 views 1 this week
no commentswrite comment
1 2 3 4 5
1 last vote to show rating
add to favorites
×
Save as Personal and add changes to this tab that will be seen only by you. Learn more ›
×
You can save this tab as Personal to edit and correct it or add notes. All changes will be seen only by you. Learn more »
launch autoscroll
font size
0
reset
how to read this tab
guitar tuner
edit
Autoscroll
slow
fast
+/-
esc
set tempo
stop
Author
Difficulty
About this tab version
Only proper version of this tab thats out there and easiest way to play. Its how Liam Fray actually plays it. Was this info helpful? Yes No
-------------------------------------------------------------------------------
                             Cavorting - Courteeners
-------------------------------------------------------------------------------
Tabbed by: Liam Fray
E-mail:

Tuning: Standard

Intro:

e|-----3------3--------5-----3--------------------------------------------|
B|---3----------5--------7-----5------------------------------------------|
G|-4-----4h5------5--7-----5-----5----------------------------------------|
D|------------------------------------------------------------------------| x4
A|------------------------------------------------------------------------|
E|------------------------------------------------------------------------|

Pre-verse x2:

e|------------------------------------|          e|--7---8---10-------------------|
B|------12----------------------------|          B|-------------------------------|
G|----------12------------------------| x3 then  G|-------------------------------|
D|------------------------------------|          D|-------------------------------|
A|--/10-------------------------------|          A|-------------------------------|
E|------------------------------------|          E|-------------------------------|

Verse 1:

  Lead:

  "Your club is full of..."

e|--7(x5)--8(x3)--7(x5)---------7(x5)--8(x3)--7--8--10-----------------------|
B|-----------------------10(x3)----------------------------------------------|
G|---------------------------------------------------------------------------| x2
D|---------------------------------------------------------------------------|
A|---------------------------------------------------------------------------|
E|---------------------------------------------------------------------------|


  Rhythm:


 G        C  G              F      G        C     G  C  D (one strum each)
Your club is full of over rated,   dehydrated,        goggled eyed girls,


 G               C   G            F        G         C       G  C  D (one strum each)
And their trying to stare at me, but their eyes are rattling and they're struggling to see




Bridge x2:

e|------------------------------------|          e|--7---8---10-------------------|
B|------12----------------------------|          B|-------------------------------|
G|----------12------------------------| x3 then  G|-------------------------------|
D|------------------------------------|          D|-------------------------------|
A|--/10-------------------------------|          A|-------------------------------|
E|------------------------------------|          E|-------------------------------|


Verse 2:

Rhythm & Lead guitar both same for all verses (G/C/G/F/G/C/GCD)

And she can't stand still because of sixteen pills that
She's taken in the mini bus,
Her conscience followed her into the night, gave her mum a fright,
I said 'Fuck that it is her own fault for letting her out of her sight


Chorus:

"And you're too tired to eat..."

e|-----3------3--------5-----3--------------------------------------------|
B|---3----------5--------7-----5------------------------------------------|
G|-4-----4h5------5--7-----5-----5----------------------------------------|
D|------------------------------------------------------------------------| x4
A|------------------------------------------------------------------------|
E|------------------------------------------------------------------------|

Bridge:

e|------------------------------------|          e|--7---8---10-------------------|
B|------12----------------------------|          B|-------------------------------|
G|----------12------------------------| x3 then  G|-------------------------------|
D|------------------------------------|          D|-------------------------------|
A|--/10-------------------------------|          A|-------------------------------|
E|------------------------------------|          E|-------------------------------|


   "Cavorting, and snorting..."
e|---3--3----------3--3--------------------|
B|---3--3----------3--3--------------------|
G|---4--4----------4--4--------------------|
D|---5--5----------5--5--------------------|
A|---5--5----------5--5--------------------|
E|---3--3----------3--3--------------------|

   "Get your and off me trouser leg..."

e|--7(x5)--8(x3)--7(x5)---------7(x5)--8(x3)--7--8--10-----------------------|
B|-----------------------10(x3)----------------------------------------------|
G|---------------------------------------------------------------------------|
D|---------------------------------------------------------------------------|
A|---------------------------------------------------------------------------|
E|---------------------------------------------------------------------------|

Pre-chorus:

e|------------------------------------|          e|--7---8---10-------------------|
B|------12----------------------------|          B|-------------------------------|
G|----------12------------------------| x3 then  G|-------------------------------|
D|------------------------------------|          D|-------------------------------|
A|--/10-------------------------------|          A|-------------------------------|
E|------------------------------------|          E|-------------------------------|

Chorus:

"And you're too tired to eat..."

e|-----3------3--------5-----3--------------------------------------------|
B|---3----------5--------7-----5------------------------------------------|
G|-4-----4h5------5--7-----5-----5----------------------------------------|
D|------------------------------------------------------------------------| x4
A|------------------------------------------------------------------------|
E|------------------------------------------------------------------------|

Solo:

e|-15--12-------------------------|
B|---------15--12h13p12-----------|
G|-----------------------14--12---|
D|--------------------------------|
A|--------------------------------|
E|--------------------------------|

************************************

| /   slide up
| \   slide down
| h   hammer-on
| p   pull-off
| ~   vibrato
| +   harmonic
| x   Mute note
| b   Bend
| pb  Pre-bend
| br  Bend release
| pbr Pre-bend release
| brb Bend release bend

************************************

            
            
Suggest correction
Creating personal tab
Creating personal tab
You can edit any tab online and save it as your Personal.

You can edit, replace or remove any tab part or add personal notes – all changes will be seen only by you.

Personal tabs can be accessed anytime from any device, even offline.
Learn more »
Give kudos to tab author, rate the tab!
1 2 3 4 5
comments
print report bad tab
guest
You may want to rate the tab now too:
select rating
Wanna post a correction for this tab? Suggest correction