Oops, an error
Loading. Please wait.

Goo Goo Muck tab

version 3
version 3

Whole song

12,917 views 15 this week
1 commentread comment
1 2 3 4 5
x 7
add to favorites
×
Save as Personal and add changes to this tab that will be seen only by you. Learn more ›
×
You can save this tab as Personal to edit and correct it or add notes. All changes will be seen only by you. Learn more »
launch autoscroll
font size
0
reset
how to read this tab
guitar tuner
edit
Autoscroll
slow
fast
+/-
esc
set tempo
stop
-------------------------------------------------------------------------------
                             Goo Goo Muck - The Cramps
-------------------------------------------------------------------------------
Tabbed by:David Smith
Email:davidtsmith_2000@yahoo.com

Tuning:Standard

e|---------2----2--2---------------2----2--2------------------------------------|
B|--0--0---3----3--3----0--0--0----3----3--3------------------------------------|
G|--1--1---2----2--2----1--1--1----2----2--2------------------------------------|
D|--2--2---0----0--0----2--2--2----0----0--0------------------------------------|
A|--2--2----------------2--2--2-------------------------------------------------|
E|--0--0----------------0--0--0-------------------------------------------------|

e|---------------------------------------------------------------------------|
B|---------------------------------------------------------------------------|
G|---------------------------------------------------------------------------|
D|---0-1-2-0---0--2-2-2------------------------------------------------------|
A|-2---------2----------2----------------------------------------------------|
E|----------------------------0--3-3--5-5--3--0--3-3-5-5-5--3----------------|

e|---------------------------------------------------------------------------|
B|--------------2--2--2--------------------------5-5-5-5-5-5-5-5-5-----------|
G|--4--4--4-----2--2--2------0-2-2b-222r-0-------------4-4-4-4-4-4-----------|
D|--4--4--4-----2--2--2----2---------------2-0-------------------------------|
A|--2--2--2-----0--0--0------------------------------------------------------|
E|---------------------------------------------------------------------------|

e|--3b-3b-3b-3b-3-3-3-3-3-3-3------------------------------------------------|
B|--------------2-2-2-2-2-2-2--------0----0----0----0----0-------------------|
G|--------------------------------3b---3b---3b---3b---3b---------------------|
D|---------------------------------------------------------------------------|
A|---------------------------------------------------------------------------|
E|---------------------------------------------------------------------------|

e|---------------------------------------------------------------------------|
B|--4--2--0------------4--2--0--2--0-----------------------------------------|
G|-----------2--0--2-----------------2--0------------------------------------|
D|-----------------------------------------2v2v2v2v2v------------------------|
A|---------------------------------------------------------------------------|
E|---------------------------------------------------------------------------|


| /  slide up
| \  slide down
| h  hammer-on
| p  pull-off
| ~  vibrato
| +  harmonic
| x  Mute note

            
            
Suggest correction
Creating personal tab
Creating personal tab
You can edit any tab online and save it as your Personal.

You can edit, replace or remove any tab part or add personal notes – all changes will be seen only by you.

Personal tabs can be accessed anytime from any device, even offline.
Learn more »
comments
print report bad tab
1 comment total.
0 reply
swave75 382 Jul 27, 2012 09:43 AM

Great tab!!!

guest
Wanna post a correction for this tab? Suggest correction