Oops, an error
Loading. Please wait.

I Cant Hardly Stand It tab

version 1
version 1

Whole song

Interactive

22,656 views 33 this week
4 commentsread comments
1 2 3 4 5
x 4
add to favorites
×
Save as Personal and add changes to this tab that will be seen only by you. Learn more ›
×
You can save this tab as Personal to edit and correct it or add notes. All changes will be seen only by you. Learn more »
launch autoscroll
font size
0
reset
how to read this tab
guitar tuner
edit
Autoscroll
slow
fast
+/-
esc
set tempo
stop
Difficulty
The Cramps - i cant hardly stand it

By Daff

riff 1
e-------------------------------------------|
b-------------------------------------------|
G-----------------------------------------9-|
D-----------------------------------------9-|
A---1h2-1h2-------1h2-1h2-------1h2-1h2---7-|
E-0---------0---0---------0---0---------0---|

riff 2
e-------------|
b----------2--|
G----------2--|
D--0-0-----2--|
A-0-0-1-0-----|
E-------------|

riff 3
e--------------------|
b--------------------|
G--------------------|
D--11111111----------|
A-----------44444444-|
E--------------------|

you should be able to work out the timing and stuff from that.

            
            
Suggest correction
Creating personal tab
Creating personal tab
You can edit any tab online and save it as your Personal.

You can edit, replace or remove any tab part or add personal notes – all changes will be seen only by you.

Personal tabs can be accessed anytime from any device, even offline.
Learn more »
comments
print report bad tab
4 comments total. Showing first comments.
0 reply
terrortabber 30 Dec 24, 2007 05:23 AM

The Cramps - I can't hardly stand it (correction)

Riff
1
e/-----
B/-----
G/-----
D/-----
-
A/---1h2-1h2-----1h2-1h2---

E/-0-----0--0-----0-

Riff
2
e/-----0-
B/-----0-
G/-----
D/-----
A/---1h2-1h2-----
E/-0-----0---
-

Riff
3
e/-----
B/-----2-
G/-----2-
D/---0h1-0h1-----
A/-0-----0---
E/-----

R
iff
4
e/-----
B/-----
G/-----
D/-----
A/--6-6-6-6--4-4-4-4-
E/
-7-7-7-7--5-5-5-5--

0 reply
terrortabber 30 Dec 24, 2007 05:31 AM

****ing hell...

0 reply
terrortabber 30 Dec 24, 2007 05:36 AM

I'm just going to post the tab @ ultimate guitar

guest
Wanna post a correction for this tab? Suggest correction