Oops, an error
Loading. Please wait.

Promises tab

version 1
version 1

Whole song

Interactive

24,818 views 36 this week
1 commentread comment
1 2 3 4 5
x 3
add to favorites
×
Save as Personal and add changes to this tab that will be seen only by you. Learn more ›
×
You can save this tab as Personal to edit and correct it or add notes. All changes will be seen only by you. Learn more »
launch autoscroll
font size
0
reset
how to read this tab
guitar tuner
backing track
0:00
0:00
edit
Autoscroll
slow
fast
+/-
esc
set tempo
stop
Author
Unregistered
NOTE: Guitar2 is dist. only in the 2 solos.

                        open bar open open
Intro: strum the chords Em   Bm  D     C

       open bar bar bar
Guitar1
Verse: Em   Bm  D   C

 Guitar2
[Verse]
e|--2--------2-----2-----------2-----3-2-0------|
B|----3--------3-----------3-----3---------3----|
G|------4--------4-------2---2-----2---------2--|
D|--------4------------0------------------------|
A|----------------------------------------------|
E|----------------------------------------------|

Chorus: Em  Bm   D  C

Bridge: Guitar1 dist. Guitar2 clean
Strum through Em  Bm  D  C

Guitar1 strums the verse chords

Guitar2 Solo:
Riff1:                       Riff2:
e|--------------------------- E--------------------------|
B|--/12-12-12-12-12--10-8---- B--/12-12-12-12-12--10-8---|
G|------------------------9-- G------------------------9-|
D|--------------------------- D--------------------------|
A|--------------------------- A--------------------------|
E|--------------------------- E--------------------------|

Riff3:
e|----------------------------|
B|--/13-13-13-13-13--12-10----|
G|-------------------------9--|
D|----------------------------|
A|----------------------------|
E|----------------------------|

Riff5:
e|-------------------------------------------------------|
B|---------------------------------10-------10-------10--|
G|--12--9-9-9-12--9-9-9-12--9-9-9-----9-9-9----9-9-9-----|
D|-------------------------------------------------------|
A|-------------------------------------------------------|
E|-------------------------------------------------------|

e|---------|
B|---------|
G|--9-9-9--|
D|---------|
A|---------|
E|---------|

Guitar2 ends on  E--~---|  Guitar1  Em
                 B--12--|
                 G------|
                 D------|
                 A------|
                 E------|

Order:
[Intro]
[Verse]
[Chorus]
[Bridge]
[Verse]
[Chorus]
[riffs] 1, 2, 2, 3, 1
 guitar1 guitar2 riff: 1
[Chorus]
[riffs] 5, 3, 2, 2, 3, 1, 2, 2, 3

            
            
Suggest correction
Creating personal tab
Creating personal tab
You can edit any tab online and save it as your Personal.

You can edit, replace or remove any tab part or add personal notes – all changes will be seen only by you.

Personal tabs can be accessed anytime from any device, even offline.
Learn more »
Give kudos to tab author, rate the tab!
1 2 3 4 5
comments
print report bad tab
1 comment total.
0 reply
guitar_chickk12 40 Nov 06, 2007 01:44 PM

perfect! 5*****, thanks soooo much!

guest
Wanna post a correction for this tab? Suggest correction