Oops, an error
Loading. Please wait.

Finally Free tab

451 views 9 this week
2 commentsread comments
1 2 3 4 5
1 last vote to show rating
add to favorites
×
Save as Personal and add changes to this tab that will be seen only by you. Learn more ›
×
You can save this tab as Personal to edit and correct it or add notes. All changes will be seen only by you. Learn more »
launch autoscroll
font size
0
reset
how to read this tab
guitar tuner
edit
Autoscroll
slow
fast
+/-
esc
set tempo
stop
-------------------------------------------------------------------------------
                             Finally Free - The Cribs
-------------------------------------------------------------------------------
Tabbed by: the_watch_trick
Tuning: standard 

Attempted to tab this cos it's one of the best tracks on the record. I worked it out partially from
the only half-decent live video i could find and from ear: https://www.youtube.com/watch?v=SQ2e--uC_Rk
Just a note, when i use the '~' symbol, i'm signifying to let the note ring rather than vibrato.

Intro
e|-------------------------------------------------------------------|
B|--10-10-10-10-10-10--15--15--15--15--------------------------------|
G|-8--8--8--8--8--8--12--12--12--12--12-17\--------------------------|
D|-------------------------------------------------------------------|
A|-------------------------------------------------------------------|
E|-------------------------------------------------------------------|

Verse 
Instead of playing the chords you can just play 8 and 6 on the G string if 
you want, I think it still sounds good.    

e|---6--6--6---------6--65-----------------------|
B|-10-10-10-8xx6xx-10-10--8xx--6-8---------------|
G|----------7xx5xx--------7xx-7------------------|
B|----------9xx----------------------------------|  x8
G|-----------------------------------------------|
D|-----------------------------------------------|
A|-----------------------------------------------|
E|-----------------------------------------------|

Chorus
e|----------------------------------------------------------------------------|
B|----------------------------------------------------------------------------|
G|-5-7------3/5-3~-575---575---575---3/5-3~-575---575---575---3/5-3~-57775----|
D|-----5-3-3----------5~----5~----533----------5~----5~----533----------------|
A|----------------------------------------------------------------------------|
E|----------------------------------------------------------------------------|

e|-555555666555------5-5-5-5--------------|
B|-888888888888------8-8-8-8--------------|
G|-777777777777--x3--7-7-7-7--------------|
D|-888888888888------8-8-8-8--------------|
A|----------------------------------------|
E|----------------------------------------|

Back to verse, played 4 times instead this time

Chorus again, with the first bit being played like this instead
e|--------------------|
B|--------------------|
G|-5-7-8----3/5-3~----|
D|-------5-3----------|
A|--------------------|
E|--------------------|

Break
e|--------------------------------------------------------------------------------------------|
B|--------10-10~--10-----------------------------------------10-10~--10-----------------------|
G|-5~-7~-8--8----8--85~-3~-332------5^~-3~-3320---32-75~-7~-8--8----8--85~-3~-332-------------|
D|----------------------------5~-333-----------30---5-----------------------------5~-555555---|
A|--------------------------------------------------------------------------------------------|
E|--------------------------------------------------------------------------------------------|

Back to Chorus, with the first bit being played slightly differently, and with the chords 
repeated 7 times instead of 3 this time
e|----------------------------------------------------------------------------|
B|----------------------------------------------------------------------------|
G|----------/5-3~-575---575---575---3/5-3~-575---575---575---3/5-3~-57775-----|
D|-5-7-8-7-0---------5~----5~----533----------5~----5~----533-----------------|
A|----------------------------------------------------------------------------|
E|----------------------------------------------------------------------------|

Outro
e|---6--6--6---------6--65----------6--6--6~~~~~~~~~~~-|
B|-10-10-10-8xx6xx-10-10--8x--6-8-10-10-10-------------|
G|----------7xx5xx--------7x-7-------------------------|
D|----------9xx----------------------------------------|
A|-----------------------------------------------------|
E|-----------------------------------------------------|

And there you go, quite confident that this is accurate, tho as always really appreciate 
improvements. 

************************************

| /   slide up
| \   slide down
| h   hammer-on
| p   pull-off
| ~   vibrato
| +   harmonic
| x   Mute note
| b   Bend
| pb  Pre-bend
| br  Bend release
| pbr Pre-bend release
| brb Bend release bend

************************************

            
            
Suggest correction
Creating personal tab
Creating personal tab
You can edit any tab online and save it as your Personal.

You can edit, replace or remove any tab part or add personal notes – all changes will be seen only by you.

Personal tabs can be accessed anytime from any device, even offline.
Learn more »
Give kudos to tab author, rate the tab!
1 2 3 4 5
comments
print report bad tab
2 comments total.
0 reply
Surround5ound 20 Sep 26, 2016 05:22 AM

Hoped someone was gonna tab this tune!! Sounds perfect.

0 reply
the_watch_trick 503 Sep 26, 2016 10:00 AM

Thanks a lot! Actually glad you commented cos I just realised I'd tabbed half of the break on the wrong strings ha.

guest
You may want to rate the tab now too:
select rating
Wanna post a correction for this tab? Suggest correction