Oops, an error
Loading. Please wait.

Youre Gonna Lose Us bass

version 2
version 2

Whole song

982 views 1 this week
no commentswrite comment
1 2 3 4 5
1 last vote to show rating
add to favorites
×
Save as Personal and add changes to this tab that will be seen only by you. Learn more ›
×
You can save this tab as Personal to edit and correct it or add notes. All changes will be seen only by you. Learn more »
launch autoscroll
font size
0
reset
guitar tuner
edit
Autoscroll
slow
fast
+/-
esc
set tempo
stop
Author
Difficulty
Like this song a lot. There was already a tab up for this song, but I thought it was a 
off in some bits and missed out the bit before the solo, this one should be pretty much 
but comments and corrections are welcome.
Intro
G|------------------------|
D|------------------------|
A|0--0-2---0--0-2---0--0-2|
E|------------------------|

Verse
G|----------------------------|
D|222----222----444----4444h64|
A|---2h42---2h42---2h42-------|
E|----------------------------|

Pre-Chorus
G|--------------------------------|
D|--------------------------------|
A|22-2-22-22-2-22-22-2-22-22224466|
E|--------------------------------|

Chorus has two parts to it
Chorus Part 1
G|-----------4-66-6-66-66-6-44------------4-66-6-66-6666-44--|
D|2-22-22-2/6-6----------------2-22-22-2/6-6---------------66|
A|-----------------------------------------------------------|
E|-----------------------------------------------------------|

Chorus Part 2
G|-----------------------------------------------|
D|-----------------------------------------------|
A|0-0-0-0-2-22-22-0-0-0-0-2-22-22-0-0-0-0-2-22-22|
E|-----------------------------------------------|

Chorus Extended - Play this after the second chorus before the solo.
G|--------------------------------------------------------------|
D|2-2-22-2-2-22-------------------------------------------------|
A|--------------0-0-0-0-2-22-22-0-0-0-0-2-22-22-0-0-0-0-2-22-2-2|
E|--------------------------------------------------------------|

During the solo, you play the verse once, only at a slower speed.

Back to the chorus to finish

            
            
Suggest correction
Creating personal tab
Creating personal tab
You can edit any tab online and save it as your Personal.

You can edit, replace or remove any tab part or add personal notes – all changes will be seen only by you.

Personal tabs can be accessed anytime from any device, even offline.
Learn more »
Give kudos to tab author, rate the tab!
1 2 3 4 5
comments
print report bad tab
guest
You may want to rate the tab now too:
select rating
Wanna post a correction for this tab? Suggest correction