Oops, an error
Loading. Please wait.

Youre Gonna Lose Us tab

version 2
version 2

Whole song

6,441 views 15 this week
2 commentsread comments
1 2 3 4 5
x 9
add to favorites
×
Save as Personal and add changes to this tab that will be seen only by you. Learn more ›
×
You can save this tab as Personal to edit and correct it or add notes. All changes will be seen only by you. Learn more »
launch autoscroll
font size
0
reset
how to read this tab
guitar tuner
edit
Autoscroll
slow
fast
+/-
esc
set tempo
stop
Author
originally a bside on the "hey scenesters" 7inch

intro 

e-14-15-16-15--14-15-16-15-15-15|
b-14-14-14-14--16-16-16-16-16-16|
g-14-14-14-14--14-14-14-14-14-14|
d-------------------------------|
a-------------------------------|
E-------------------------------|


Verse throughout is the two chords below

 
e-7-----5--|
b-9-----7--|
g-8-----6--|
d-9-----7--|
a----------|
E----------|

"do you love me?....NO!" etc is this chord played repeatedly

e-7
b-9
g-8
d-9
a-x
E-x

 Bridge- "lets be avvvin you out" 

e-(16x4)-16-17-17--19-19-16---16-16-17-17--19-19-16----|
b-(16x4)-16-16-16--16-16-16---16-16-16-16--16-16-16----|
g------------------------------------------------------|
d------------------------------------------------------|
a------------------------------------------------------|
E------------------------------------------------------|

Chorus-"when im drunk i can be an arsehole......"

e-14-15-16-15--14-14-14-14-14-|
b-14-14-14-14--16-16-16-16-16-|
g-14-14-14-14--14-14-14-14-14-| x 4
d-----------------------------|
a-----------------------------|
E-----------------------------|

After this the verse comes in again, you can play the F# and B chords as before or play 
faint guitar line over the chords

for the F#

e-7-9-7-----| x2
b---------9-|
g-----------|
d-----------|
a-----------|
E-----------|
for the B

e-2-4-2-----| x2
b--------2--|
g-----------|
d-----------|
a-----------|
E-----------|


"do you love me? NO!..." again 

e-7
b-9
g-8
d-9
a-x
E-x


after that its to the bridge again

e-(16x4)-16-17-17--19-19-16---16-16-17-17--19-19-16----|
b-(16x4)-16-16-16--16-16-16---16-16-16-16--16-16-16----|
g------------------------------------------------------|
d------------------------------------------------------|
a------------------------------------------------------|
E------------------------------------------------------|


Chorus again-"when im drunk i can be an arsehole!......"

e-14-15-16-15--14-14-14-14-14-|
b-14-14-14-14--16-16-16-16-16-|
g-14-14-14-14--14-14-14-14-14-| x 4
d-----------------------------|
a-----------------------------|
E-----------------------------|


solo (rough guide)

e----------7--9b-9b-9b-9b-7---------------|
b------7--9------------------7*---8*---9*-|
g-7--9------------------------------------|
d-----------------------------------------| x2
a-----------------------------------------|
E-----------------------------------------|
(* fast picking)

then into this chord again

e-7
b-9
g-8
d-9
a-x
E-x


bridge again

e-(16x4)-16-17-17--19-19-16---16-16-17-17--19-19-16----|
b-(16x4)-16-16-16--16-16-16---16-16-16-16--16-16-16----|
g------------------------------------------------------|
d------------------------------------------------------|
a------------------------------------------------------|
E------------------------------------------------------|


Chorus "when im drunk i can be an arsehole!......"

e-14-15-16-15--14-14-14-14-14-|
b-14-14-14-14--16-16-16-16-16-|
g-14-14-14-14--14-14-14-14-14-| x 4
d-----------------------------|
a-----------------------------|
E-----------------------------|


then finish on..
e-7
b-9
g-8
d-9
a-x
E-x

Check out my Cribs guitar tab blog at http://thecribsguitartabs.blogspot.co.uk/

            
            
Suggest correction
Creating personal tab
Creating personal tab
You can edit any tab online and save it as your Personal.

You can edit, replace or remove any tab part or add personal notes – all changes will be seen only by you.

Personal tabs can be accessed anytime from any device, even offline.
Learn more »
comments
print report bad tab
2 comments total.
+1 reply
kkinoxxx 72 Dec 10, 2006 03:46 AM

Pretty much right.

I play the chorus like this:
e-16-1616-161616-161719161719161719-16161616-19-19-191919-161719
b-16-1616-161616-161616161616161616-19161916-16-16-161616-161616
g---------------------------------------------------------------
d---------------------------------------------------------------
a---------------------------------------------------------------
e---------------------------------------------------------------

then on the chorus before the solo you put this on the end
e-212121212121191919191919-
b-161616161616161616161616-

instead of
e-19-19-191919-161719-
b-16-16-161616-161616-

also solo is:
e-------------7---7-9-7-----------------------
b-------9-7-9---9-------9-7777-8888-9999-888--
g-9-8-9---------------------------------------
d------------------------ fast picking
a---------------------------------------------
e---------------------------------------------

Just a variation for those that want it

0 reply
luckyman12 176 Jun 12, 2007 09:32 AM

the solo is spot on an the bit before th solo is but i cant remembr what th chorus guitars sound like, so ill have a listen :)

guest
You may want to rate the tab now too:
select rating
Wanna post a correction for this tab? Suggest correction