Oops, an error
Loading. Please wait.

Yeeeaaahhh tab

version 1
version 1

Whole song

1,229 views 1 this week
6 commentsread comments
1 2 3 4 5
x 3
add to favorites
×
Save as Personal and add changes to this tab that will be seen only by you. Learn more ›
×
You can save this tab as Personal to edit and correct it or add notes. All changes will be seen only by you. Learn more »
launch autoscroll
font size
0
reset
how to read this tab
guitar tuner
edit
Autoscroll
slow
fast
+/-
esc
set tempo
stop
Author
-------------------------------------------------------------------------------
                                                     Yeeeaaahhh - The Crowns
-------------------------------------------------------------------------------
Tabbed by:Will Heasman
Email:W.heasman@hotmail.com

Tuning: Eadgbe

This is the first time i've Tabbed something that isnt my own peice...

This song is by a fairly new band who originate in Amsterdam
they started off by making a demo just for there freinds
and had no idea that they would have become one of the most listened to bands on myspace.
Anyway i listened to one of thier songs and decided to tab it so here goes...

intro/verse
e|---------------------------------------------------------------------------|
B|---------------------------------------------------------------------------|
G|---------------------------------------------------------------------------|
D|------2-5------------------------------------------------------------------|
A|----------3-3-0-----------x3 then --1010101010101010--33333333-------------|
E|--5-5-----------3-3-0---------------8-8-8-8-8-8-8-8---55555555-------------| x3
then repeat until the chorus


Chorus
e|---------------------------------------------------------------------------|
B|---------------------------------------------------------------------------|
G|---------------------------------------------------------------------------|
D|---------------------------------------------------------------------------|
A|--55555555555555555-10101010-5555555---------------------------------------|
E|--77777777777777777-88888888-3333333---------------------------------------|


then play intro/verse

just after the chorus a "break" comes in, simply put its the chorus but palm muted and 
at a slower pace

Break

e|---------------------------------------------------------------------------|
B|---------------------------------------------------------------------------|
G|---------------------------------------------------------------------------|
D|---------------------------------------------------------------------------|
A|--55555555555555555-10101010-5555555---------------------------------------|
E|--77777777777777777-88888888-3333333---------------------------------------|x4
    pm.....pm.....pm......pm.....pm.....

Then back to the chorus

and thats it.. pretty easy to play, and good fun for beginners

http://thecrownsmusic.com/

            
            
Suggest correction
Creating personal tab
Creating personal tab
You can edit any tab online and save it as your Personal.

You can edit, replace or remove any tab part or add personal notes – all changes will be seen only by you.

Personal tabs can be accessed anytime from any device, even offline.
Learn more »
Give kudos to tab author, rate the tab!
1 2 3 4 5
comments
print report bad tab
6 comments total. Showing first comments.
+2 reply
jiggerz123 50 May 22, 2009 08:51 AM

intro/verse
e|---------------------------------------------------------------------------|
B|---------------------------------------------------------------------------|
G|------0-0------------------------------------------------------------------|
D|------2-5------------------------------------------------------------------|
A|----------3-3-0-----------x3 then --1010101010101010--33333333-------------|
E|--5-5-----------3-3-0---------------8-8-8-8-8-8-8-8---55555555-------------|
I realised that you need to strum the 2 and 5 on the D string like a power chord...... also im messed up the chorus and the "break" its played...
Chorus
e|---------------------------------------------------------------------------|
B|---------------------------------------------------------------------------|
G|---------------------------------------------------------------------------|
D|---------------------------------------------------------------------------|
A|--7777777777777777-10101010-5555555----------------------------------------|
E|--5555555555555555-88888888-3333333----------------------------------------|
i mixed up the 5 and 7

0 reply
The Knox 111 Jun 08, 2009 02:58 PM

Awesome tab, helped me learn the whole song, although i think it would sound better like this:
e|---------------------------------------------------------------------------|
B|---------------------------------------------------------------------------|
G|---------------------------------------------------------------------------|
D|------2-5------------------------------------------------------------------|
A|------0-0---3-3-0-----------x3 then ---------------------------------------|
E|--5-5-------------3-3-0---------------88888888---33333333------------------|

And also the soft part where you palm mute at 2:05 sounds better like this:

e|---------------------------------------------------------------------------|
B|---------------------------------------------------------------------------|
G|---------------------------------------------------------------------------|
D|--7777777777777777--10-10-10-10-10-10-10-10--55555555----------------------|
A|---------------------------------------------------------------------------|
E|---------------------------------------------------------------------------|

0 reply
Dr Macintosh 10 Jun 23, 2009 08:38 AM

Yeeeeeeeeeeaaaaaaaaaaaaaahhhhh good on u shiney latex

guest
You may want to rate the tab now too:
select rating
Wanna post a correction for this tab? Suggest correction