Oops, an error
Loading. Please wait.

Black Sun tab

version 2
version 2

Whole song

34 views 6 this week
no commentswrite comment
1 2 3 4 5
3 more votes to show rating
add to favorites
×
Save as Personal and add changes to this tab that will be seen only by you. Learn more ›
×
You can save this tab as Personal to edit and correct it or add notes. All changes will be seen only by you. Learn more »
launch autoscroll
font size
0
reset
how to read this tab
guitar tuner
edit
Autoscroll
slow
fast
+/-
esc
set tempo
stop
[Intro]

e|---------------------------------------------------------------------------|
B|---------------------------------------------------------------------------|
G|---------------------------------------------------------------------------|
D|---------------------------------------------------------------------------|
A|---10---10---10---10---10--10h11-----11---11------13--11---11/10-----------|
D|-0----0----0----0------------------0----0-----0----------------------------|

e|---------------------------------------------------------------------------|
B|---------------------------------------------------------------------------|
G|---------------------------------------------------------------------------|
D|---------------------------------------------------------------------------|
A|---10---10---10---10---10--10h11----11---11--13-11--11/10------------------|
D|-0----0----0----0-----------------0----0-----------------------------------|

   :20            :29
e|---------------------------------------------------------------------------|
B|-----7-9------------7-10---------------------------------------------------|
G|-7-9-----8v-----7-9-------8v-----------------------------------------------|
D|---------------------------------------------------------------------------|
A|---------------------------------------------------------------------------|
D|---------------------------------------------------------------------------|

 
[Verse]

e|---------------------------------------------------------------------------|
B|---------------------------------------------------------------------------|
G|---------------------------------------------------------------------------|
D|---------------------------------------------------------------------------|
A|---10---10---10---10---10--10h11-----11---11---11---11--11--11/10----------|
D|-0----0----0----0------------------0----0----0----0------------------------|

e|---------------------------------------------------------------------------|
B|---------------------------------------------------------------------------|
G|---------------------------------------------------------------------------|
D|---------------------------------------------------------------------------|
A|---10---10---10---10---10--10h11----11---11--13-11--11/10------------------|
D|-0----0----0----0-----------------0----0-----------------------------------|


Don't you hit that defenseless child
What gives you that empty right?
Carry that for the rest of your life
Carry that for the rest of time


[Pre-Chorus]

Eb                          F
Did they hold you down? Oh, yeah
Eb                          F
Did they push you around? Oh, yeah


[Chorus]

B              C#        F
Burning in the black sun
F
Like a jackle on the run
B                       C#
Well, burning in the black sun


[Verse]

e|---------------------------------------------------------------------------|
B|---------------------------------------------------------------------------|
G|---------------------------------------------------------------------------|
D|---------------------------------------------------------------------------|
A|---10---10---10---10---10--10h11-----11---11---11---11--11--11/10----------|
D|-0----0----0----0------------------0----0----0----0------------------------|

e|---------------------------------------------------------------------------|
B|---------------------------------------------------------------------------|
G|---------------------------------------------------------------------------|
D|---------------------------------------------------------------------------|
A|---10---10---10---10---10--10h11----11---11--13-11--11/10------------------|
D|-0----0----0----0-----------------0----0-----------------------------------|

   1:43          1:52
e|---------------------------------------------------------------------------|
B|-----7-9-------10-9-7------------------------------------------------------|
G|-7-9-----8v-----------8v---------------------------------------------------|
D|---------------------------------------------------------------------------|
A|---------------------------------------------------------------------------|
D|---------------------------------------------------------------------------|


Burning up in the black sun, whoa yeah
Rotten apples every one, yeah
Look at them, look at them run
Guilty now for what they have done

[Pre-Chorus]

Eb                          F
Did they hold you down? Oh, yeah
Eb                          F
Did they push you around? Oh, yeah


[Chorus]

B              C#       Eb
Burning in the black sun
Eb
Like a jackle on the run
B                       C#
Well, burning in the black sun


[Chorus]


B              C#        Eb
Burning in the black sun
Eb
Like a dog on the run
B              C#       Eb
Burning in the black sun
Eb
Well, the time has finally come
B        C#        Eb
Oh yeah, black sun
Eb
Still a jackel on the run, oh yeah
B                 C#             Eb
Burning in the black, the black sun


[Solo]

e|---------------------------------------------------------------------------|
B|---------------------------------------------------------------------------|
G|-7--7h8p7----8--7-5-------7--7h8p7----8--7-5-------------------------------|
D|----------8----------8-7-----------8---------8--7-8--8/9\8-----------------|
A|---------------------------------------------------------------------------|
D|---------------------------------------------------------------------------|

e|---------------------------------------------------------------------------|
B|---------------------------------------------------------------------------|
G|-7--7h8p7--8--7-5----------------------------------------------------------|
D|------------------8-7------------------------------------------------------|
A|---------------------------------------------------------------------------|
D|---------------------------------------------------------------------------|


[Bridge]

Eb                 
Caught their vein, you've gone insane
Ebm                
You've lost your mind, you're not my kind
Eb                 
I hate your soul, you kill my fun
Ebm
They're no good, you better run
Eb
Gonna get you down, gonna put you down
Eb
Gonna stick you in the ground
Eb
Gonna stick you in the ground
Eb
Gonna make it hell, gonna make you


[Chorus]

B              C#        Eb
Burning in the black sun
Eb
Like a dog on the run
B              C#       Eb
Burning in the black sun
Eb
Well, the time has finally come
B        C#        Eb
Oh yeah, black sun
Eb
Still a jackel on the run, oh yeah
B                 C#             Eb
Burning in the black, the black sun

[Verse]

N.C.
Yeah, you were a bully
The universal bullies
Ha ha ha
Who's laughing at you now?
Who's laughing at you now?
You ain't got no hold on me
You ain't got no piece of me
You are lost in your own mind 
Yes you are you're declining in

[Chorus]

B              C#        Eb
Burning in the black sun
Eb
Like a dog on the run
B              C#       Eb
Burning in the black sun
Eb
Well, the time has finally come
B        C#        Eb
Oh yeah, black sun
Eb
Still a jackel on the run, oh yeah
B                 C#             Eb
Burning in the black, the black sun
B                 C#
Burning in the sun, burning in the
          Eb
The black sun



            
            
Suggest correction
Creating personal tab
Creating personal tab
You can edit any tab online and save it as your Personal.

You can edit, replace or remove any tab part or add personal notes – all changes will be seen only by you.

Personal tabs can be accessed anytime from any device, even offline.
Learn more »
Give kudos to tab author, rate the tab!
1 2 3 4 5
comments
print report bad tab
guest
You may want to rate the tab now too:
select rating
Wanna post a correction for this tab? Suggest correction