Oops, an error
Loading. Please wait.

Catch chords

version 1
version 1

Whole song

Interactive

20,963 views 45 this week
1 commentread comment
1 2 3 4 5
x 7
add to favorites
×
Save as Personal and add changes to this tab that will be seen only by you. Learn more ›
×
You can save this tab as Personal to edit and correct it or add notes. All changes will be seen only by you. Learn more »
launch autoscroll
font size
0
reset
transpose
0
reset
display chords
guitar tuner
backing track
0:00
0:00
edit
Autoscroll
slow
fast
+/-
esc
set tempo
stop
Author
Unregistered
Strumming
There is no strumming pattern for this song yet. and get +5 IQ
define D4+: base-fret 1 frets x x 0 2 3 4

[D]

[Intro]

[D4+]      [A]          [D]               [D4+]      [A]

[Verse 1]

Yes I [D]know who you re[A]mind me of, a [D]girl I think I used to [A]know
Yes I'd [D]see her when the day got [A]colder, on those [D]days when it felt like [A]snow
You [D]know I even think that she [A]stared like you, she [D]used to just stand there and [A]stare
And [D]roll her eyes right up to hea[A]ven and [D]make like I just wasn't [A]there

[Chorus 1]

[G]And she used to fall [A]down a lot
That [G]girl was always falling a[A]gain and again
And I [D]used to sometimes try to [A]catch her
But I [D]never even caught her [A]name

[Solo]

e|---0-0-0---------0-0---0-0-0-0-0----------------------------------------|
B|---------3-2-3-2-----------------3-2-3-2-------2-2----------------------|
G|-----------------------------------------2-2-4--------------------------|
D|------------------------------------------------------------------------|
A|------------------------------------------------------------------------|
E|------------------------------------------------------------------------|

e|------0-5---5-5-7---7-7-9---9-10-9-7-7-9-10-----2-2-2-2-0---0-----------|
B|--2-2-------------------------------------------------3---3-2-2-3-2-----|
G|------------------------------------------------------------------------|
D|------------------------------------------------------------------------|
A|------------------------------------------------------------------------|
E|------------------------------------------------------------------------|

[Verse 2]

And [D]sometimes we would spend the [A]night just [D]rolling about on the [A]floor
And I re[D]member even though it felt [A]soft at the time, I [D]always used to wake up [A]sore
You [D]know I even think that she [A]smiled like you, she [D]used to just stand there and [A]smile
And her [D]eyes would go all sort of [A]far away and [D]stay like that for quite a [A]while

[Chorus]

And I re[G]member she used to fall [A]down a lot
That [G]girl was always falling a[A]gain and again
And I [D]used to sometimes try to [A]catch her
But I [D]never even caught her [A]name
Yes I [D]sometimes even tried to [A]catch her
But I [D]never even caught her [A]name

            
            
Suggest correction
Creating personal tab
Creating personal tab
You can edit any tab online and save it as your Personal.

You can edit, replace or remove any tab part or add personal notes – all changes will be seen only by you.

Personal tabs can be accessed anytime from any device, even offline.
Learn more »
comments
print report bad tab
1 comment total.
0 reply
rancidicnar 10 Feb 28, 2004 07:00 PM

yryety

guest
Wanna post a correction for this tab? Suggest correction