Oops, an error
Loading. Please wait.
We have an official Close To Me tab made by UG professional guitarists. Check out the tab »
×
6,039 views 6 this week
1 commentread comment
1 2 3 4 5
x 8
add to favorites
×
Save as Personal and add changes to this tab that will be seen only by you. Learn more ›
×
You can save this tab as Personal to edit and correct it or add notes. All changes will be seen only by you. Learn more »
launch autoscroll
font size
0
reset
guitar tuner
backing track
0:00
0:00
edit
Autoscroll
slow
fast
+/-
esc
set tempo
stop
The Cure - Close to me

This is my first tab, I learnt it by ear so sorry for any mistakes!

Drum Intro

Verse 1 x7   Also the '111111' are 11's
G|--------------------------------------------------------------------------|
D|--------------------------------------------------------------------------|
A|--------------------------------------------------------------------------|
E|---7-7-7-77-111111---7-7-7-77-999---4-4-4-444-666---2-2-2-22-000----------|

Bit different as it goes into chorus
G|--------------------------------------------------------------------------|
D|--------------------------------------------------------------------------|
A|-------------------------------------------------------------444----------|
E|---7-7-7-77-111111---7-7-7-77-999---4-4-4-444-666---2-2-2-22--------------|

Chorus 1
G|--------------------------------------------------------------------------|
D|--------------------------------------------------------------------------|
A|------------444-----------------------------------------------------------|
E|---0-0-0-00------0-0-0-00-222-----7-7-7-77-111111--7-7-7-77-111111--------|

Verse 2 x7   
G|--------------------------------------------------------------------------|
D|--------------------------------------------------------------------------|
A|--------------------------------------------------------------------------|
E|---7-7-7-77-111111---7-7-7-77-999---4-4-4-444-666---2-2-2-22-000----------|

Chorus 2
G|--------------------------------------------------------------------------|
D|--------------------------------------------------------------------------|
A|------------444-----------------------------------------------------------|
E|---0-0-0-00------0-0-0-00-222-----7-7-7-77-111111--7-7-7-77-111111--------|

Ending   
G|--------------------------------------------------------------------------|
D|--------------------------------------------------------------------------|
A|--------------------------------------------------------------------------|
E|---7-7-7-77-111111---7-7-7-77-999---4-4-4-444-666---2--(let ring)---------|

Thank you

Tabbed by Dec Chamberlain  

            
            
Suggest correction
Creating personal tab
Creating personal tab
You can edit any tab online and save it as your Personal.

You can edit, replace or remove any tab part or add personal notes – all changes will be seen only by you.

Personal tabs can be accessed anytime from any device, even offline.
Learn more »
comments
print report bad tab
1 comment total.
-1 reply
et1123 10 Oct 21, 2015 05:41 PM

it is completely wrong. It goes from B down to a G not up. Use Transcribe and slow it down and listen. It clearly goes down not up at the beginning

guest
You may want to rate the tab now too:
select rating
Wanna post a correction for this tab? Suggest correction