Oops, an error
Loading. Please wait.

Cut bass

678 views 1 this week
no commentswrite comment
1 2 3 4 5
2 more votes to show rating
add to favorites
×
Save as Personal and add changes to this tab that will be seen only by you. Learn more ›
×
You can save this tab as Personal to edit and correct it or add notes. All changes will be seen only by you. Learn more »
launch autoscroll
font size
0
reset
guitar tuner
edit
Autoscroll
slow
fast
+/-
esc
set tempo
stop
Author
Difficulty
-------------------------------------------------------------------------------
                             CUT - THE CURE
-------------------------------------------------------------------------------
Tabbed by: taylorshiroff
E-mail: stopspammingme@7000undreademail.com

Tuning: Standard

So I sat down disappointed in the fact that there are no tabs for this FANTASTIC song off of Wish, and 
decided to figure it out myself. I think this is about 99% accurate.

   Play this right
at 0:18 --v 

G|--------------------------------------------------------------------------------------------|
D|--------------------5-4--------------------4-5-------------------4-5--------------------4-5-|
A|-7--7-7-7--7--7-7-7-----5--5-5-5--5--5-5-5-----3--3-3-3--3--3-3-3----5--5-5-5--5--5-5-5-----|
E|--------------------------------------------------------------------------------------------|

After you play that once, play this during all the verses/in between verses:

G|--------------------------------------------------------------------------------------------|
D|--------------------5-4--------------------4-5-------------------5-4--------------------4-5-|
A|-7--7-7-7--7--7-7-7-----5--5-5-5--5--5-5-5-----3--3-3-3--3--3-3-3----5--5-5-5--5--5-5-5-----|
E|--------------------------------------------------------------------------------------------|

G|---------------------------------------------------------------------------------------------|
D|--------------------5-4--------------------4-5--------------------5-4--------------------4-5-|
A|-7--7-7-7--7--7-7-7-----5--5-5-5--5--5-5-5-----0--0-0-0--0--0-0-0-----2--2-2-2--2--2-2-2-----|
E|---------------------------------------------------------------------------------------------|

Right before the chorus thing, play the last measure like this:

G|---------------------|
D|---------------------|
A|-2--2-2-2--2--2-2/12-|
E|---------------------|

At the chorus, play this:

G|---------------------------------------------------------------------------------------------|
D|--------------------5-4--------------------4-5--------------------5-4--------------------5-4-|
A|-3--3-3-3--3--3-3-3-----5--5-5-5--5--5-5-5-----7--7-7-7--7--7-7-7-----9--9-9-9--9--9-9-9-----|
E|---------------------------------------------------------------------------------------------|

G|-----------------------------------------------------------------------------------------------|
D|--------------------5-4--------------------4-5-------------------------------------------------|
A|-3--3-3-3--3--3-3-3-----5--5-5-5--5--5-5-5-----2--2-2-2--2--2-2-2--2-0-2--2-2-2--2--2-2-2--2-0-|
E|-----------------------------------------------------------------------------------------------|

G|--------------------------------------------------|
D|--------------------------------------------------|
A|-2--2-2-2--2--2-2-2--2-0-2--2-2-2--2--2-2-2--2/12-|
E|--------------------------------------------------|

Right after that, go back into the verse thing.

Then for the part at 4:14 (4:14 Scream easter egg from 1992? Coincidence? I think not...), play this:

G|---------------------------------------------------------------------------------------------------|
D|---------------------------------------------------------------------------------------------------|
A|-7----------------------5------------------------3------------------------5------------------------|
E|---------------------------------------------------------------------------------------------------|

G|---------------------------------------------------------------------------------------------------|
D|---------------------------------------------------------------------------------------------------|
A|-7----------------------5------------------------0------------------------2------------------------|
E|---------------------------------------------------------------------------------------------------|

G|---------------------------------------------------------------------------------------------------|
D|---------------------------------------------------------------------------------------------------|
A|-3----------------------5------------------------7------------------------9------------------------|
E|---------------------------------------------------------------------------------------------------|

G|-----------------------------------------------------------------------------------------------------|
D|-----------------------------------------------------------------------------------------------------|
A|-3----------------------5-------------------------2--2-2-2--2--2-2-2--2-0-2--2-2-2--2--2-2-2--2/12\2-|
E|-----------------------------------------------------------------------------------------------------|

Right at the end, end like this:
G|------|
D|------|
A|-2/14-|
E|------|

And sustain it as much as you want.

So there you go, that's pretty much the song, I also have about 60% of the guitar part worked out, so I'll 
upload that when I can.

| /  slide up
| \  slide down
| h  hammer-on
| p  pull-off
| ~  vibrato
| +  harmonic
| x  Mute note
===============================================================================

            
            
Suggest correction
Creating personal tab
Creating personal tab
You can edit any tab online and save it as your Personal.

You can edit, replace or remove any tab part or add personal notes – all changes will be seen only by you.

Personal tabs can be accessed anytime from any device, even offline.
Learn more »
Give kudos to tab author, rate the tab!
1 2 3 4 5
comments
print report bad tab
guest
You may want to rate the tab now too:
select rating
Wanna post a correction for this tab? Suggest correction