Oops, an error
Loading. Please wait.
We have an official In Between Days tab made by UG professional guitarists. Check out the tab »
×
12,269 views 12 this week
1 commentread comment
1 2 3 4 5
x 7
add to favorites
×
Save as Personal and add changes to this tab that will be seen only by you. Learn more ›
×
You can save this tab as Personal to edit and correct it or add notes. All changes will be seen only by you. Learn more »
launch autoscroll
font size
0
reset
how to read this tab
guitar tuner
backing track
0:00
0:00
edit
Autoscroll
slow
fast
+/-
esc
set tempo
stop
Author
hello

this is my first tab and they both sound good.
the first one is my version and the second is the proper one

enjoy


e|5-5-5-5-5-4-0-0-0-5-5-5-5-5-7-9-9-9-9-5-5-5-5-5-4-0|
B|---------------------------------------------------|
G|---------------------------------------------------|
D|---------------------------------------------------|
A|---------------------------------------------------|
E|---------------------------------------------------|



e|-------------------------------------------------------------------|
B|-------------------------------------------------------------------|
G|---------------------------------------6-6-6-6-6-------------------|
D|--7-7-7-7-7-7-6----------7--7-7-7-7-9--------------7--7-7-7-7-7-6--|
A|---------------7-7-7-7---------------------------------------------7|
E|-------------------------------------------------------------------|

            
            
Suggest correction
Creating personal tab
Creating personal tab
You can edit any tab online and save it as your Personal.

You can edit, replace or remove any tab part or add personal notes – all changes will be seen only by you.

Personal tabs can be accessed anytime from any device, even offline.
Learn more »
comments
print report bad tab
1 comment total.
0 reply
skintbint 66 Nov 02, 2012 10:23 AM

second version sounds most accurate - but perhaps key is too low?

guest
You may want to rate the tab now too:
select rating
Wanna post a correction for this tab? Suggest correction