Oops, an error
Loading. Please wait.

Jumping Someone Elses Train bass

version 1
version 1

Whole song

Interactive

11,554 views 9 this week
no commentswrite comment
1 2 3 4 5
x 4
add to favorites
×
Save as Personal and add changes to this tab that will be seen only by you. Learn more ›
×
You can save this tab as Personal to edit and correct it or add notes. All changes will be seen only by you. Learn more »
launch autoscroll
font size
0
reset
guitar tuner
edit
Autoscroll
slow
fast
+/-
esc
set tempo
stop
Author
THE CURE
JUMPING SOMEONE ELSE’S TRAIN
By JoFFray “Disco Rock”

INTRO 1
(Play this 3x)                  (Add this on the 3rd time)
G------11--------------------------]---------------------------------------|
D-11-11-----10-14-12-12-11---------]--11-11-11-12-11-11--------------------|
A--------------------------14-12---]---------------------------------------|
E----------------------------------]---------------------------------------|

INTRO 2
(Play 3x)
G------------------------------]-------------------------------------------|
D------------------------------]-------------------------------------------|
A------4---0-2-0-555-5-4-0-----]--4-4-4-4-4-5-4-4--------------------------|
E-2-2--------------------------]-------------------------------------------|

VERSE 1
Don't say what you mean you might spoil your face if you walk in a crowd
G--------------------------------------------------------------------------|
D------------------------------------------------4-4-4-4-7-6-4-6-4---------|
A-2-2-2-2-2-(…)-----------------4-4-4-4-4-(…)------------------------------|
E--------------------------------------------------------------------------|
you won't leave any trace It's always the same you're jumping someone
G--------------------------------------------------------------------------|
D--------------------------------------------------------------------------|
A--5-5-7-5--4-4-4-4--------------------------------------------------------|
E--------------------------------------------------------------------------|
else's train
(INTRO 2 PLAY 3X)
G------------------------------]--------------------------------------------|
D------------------------------]--------------------------------------------|
A------4---0-2-0-555-5-4-0-----]--4-4-4-4-4-5-4-4---------------------------|
E-2-2--------------------------]--------------------------------------------|

VERSE 2
It wont take you long to learn the new smile you have to adapt or
G--------------------------------------------------------------------------|
D------------------------------------------------4-4-4-4-7-6-4-6-4---------|
A-2-2-2-2-2-(…)-----------------4-4-4-4-4-(…)------------------------------|
E--------------------------------------------------------------------------|
you'll be out of style it's always the same you're jumping someone
G--------------------------------------------------------------------------|
D--------------------------------------------------------------------------|
A--5-5-7-5--4-4-4-4--------------------------------------------------------|
E--------------------------------------------------------------------------|
else’s train
(INTRO 1 PLAY 3X)
G------11--------------------------]---------------------------------------|
D-11-11-----10-14-12-12-11---------]--11-11-11-12-11-11--------------------|
A--------------------------14-12---]---------------------------------------|
E----------------------------------]---------------------------------------|

VERSE 3
If you pick up on it quick you can say you were there again and again …
G--------------------------------------------------------------------------|
D-----------------------------------------------12-12-12-12(…)-14-14-14-14-|
A-5-5-5-5(…)7-7-7-7-7(…)8-8-8-8-8(…)9-9-9-9-9(…)---------------------------|
E--------------------------------------------------------------------------|
You're jumping someone else's

(INTRO 2 PLAY 3X)
G------------------------------]-------------------------------------------|
D------------------------------]-------------------------------------------|
A------4---0-2-0-555-5-4-0-----]--4-4-4-4-4-5-4-4--------------------------|
E-2-2--------------------------]-------------------------------------------|

VERSE 4
It's the latest wave that you've been craving for the old idea is getting
G--------------------------------------------------------------------------|
D------------------------------------------------4-4-4-4-7-6-4-6-4---------|
A-2-2-2-2-2-(…)-----------------4-4-4-4-4-(…)------------------------------|
E--------------------------------------------------------------------------|
such a bore now you're back in line goin' not quite as far but in half the
G--------------------------------------------------------------------------|
D--------------------------------------------------------------------------|
A--5-5-7-5--4-4-4-4--------2-2-2-2-------0-0-0-0---------------------------|
E---------------------------------------------------------4-4-4-7-5-4------|
Time Everyone's happy And they're finally all the same  coz' everyone is
G--------------------------------------------------------------------------|
D--------------------------------------------------------------------------|
A--------------------------------------------------------------------------|
E--2-2-2-2----------------0-0-0-0------------------------------------------|
jumping  everybody's else's train jumping someone else’s train…
(INTRO 1 PLAY 6X)
G------11--------------------------]---------------------------------------|
D-11-11-----10-14-12-12-11---------]--11-11-11-12-11-11--------------------|
A--------------------------14-12---]---------------------------------------|
E----------------------------------]---------------------------------------|
END
jumping someone else’s train…
G-------------------------------------11----------11-----------------------|
D----------11-------11----0----12-12-------12-12---------------------------|
A----9-9-------9-9---------------------------------------------------------|
E--------------------------------------------------------------------------|


JOFFRAY “DISCO ROCK”

            
            
Suggest correction
Creating personal tab
Creating personal tab
You can edit any tab online and save it as your Personal.

You can edit, replace or remove any tab part or add personal notes – all changes will be seen only by you.

Personal tabs can be accessed anytime from any device, even offline.
Learn more »
comments
print report bad tab
guest
You may want to rate the tab now too:
select rating
Wanna post a correction for this tab? Suggest correction