Oops, an error
Loading. Please wait.
We have an official Killing An Arab tab made by UG professional guitarists. Check out the tab »
×
12,437 views 3 this week
no commentswrite comment
1 2 3 4 5
x 4
add to favorites
×
Save as Personal and add changes to this tab that will be seen only by you. Learn more ›
×
You can save this tab as Personal to edit and correct it or add notes. All changes will be seen only by you. Learn more »
launch autoscroll
font size
0
reset
how to read this tab
guitar tuner
edit
Autoscroll
slow
fast
+/-
esc
set tempo
stop
Author
i noticed all the tabs online have all misplaced notes or wrong ones,so decided to correct them...
im pretty 100% sure on everything, exept for the solo part (give or take a few notes)
any corrections or watever just contact me at kacey_@hotmail.co.uk

enjoy

intro
E---7h8p7--5--7----7-8/11\8----7h8p7--5--7--|
B-------------------------------------------|
G-------------------------------------------|
D-------------------------------------------|
A-------------------------------------------|
E-------------------------------------------|

ive also seen robert use these chords for the intro:
E--7-8-7--5--7----7-8/11\8---7-8-7--5--7--|
B--7-8-7--5--7----7-8/11\8---7-8-7--5--7--|
G-----------------------------------------|
A-----------------------------------------|
D-----------------------------------------|
E-----------------------------------------|

bass bit after intro:
E-----------------------------------------------------------------------|
B-----------------------------------------------------------------------|
G-----------------------------------------------------------------------|
D-----------------------------------------------------------------------|
A-------5---------4---------3---------2---------1---------0-------------|
E---7-7---7---6-6---6---5-5---5---4-4---4---3-3---3---2-2---2-1-1-4-1-0-|


E--6-7-6---6---------------------------------------------------------------|
B--------8---8--7-8-7-5-7-5--4-5-4---4-------------------------------------|
G----------------------------------5---5-4-5-4---4-------------------------|
D----------------------------------------------7---7--5-7-5-4-5-4----------|
A-----------------------------------------------------------------7-6-7----|
E--------------------------------------------------------------------------|

E------------------------------------------------------6---6---6---7-------|
B------------------------------4---4-5-4-5-7-5-7-8-7-8---8---8---8---------|
G----------------4--4--4-5-4-5---5-----------------------------------------|
D--4-5-4-5-7-5-7---5-------------------------------------------------------|
A--------------------------------------------------------------------------|
E--------------------------------------------------------------------------|


Play as a chord or natural harmonics, with whammy action-
'im alive!'
E--12~--|
B--12~--|
G--12~--|
D--12~--|
A-------|
E-------|

'im dead!' pick srape-
E---------------------|
B---------------------|
G---------------------|
D---------------------|
A--X\\\\\\\\\\\\\\\\--
E--X\\\\\\\\\\\\\\\\--


solo/fill:
E--6-7-6--6-------------------------------------------------------------------------------|
B--------8--8-7-8-7-5-7-5-4-5-4--4--4-----------------------------------------------------|
G---------------------------------5---5-4------4---4-----------5-4---4-----------4---4-5--|
D-----------------------------------------6-4-6--7---7-5-7-5-4-----7---7-6-7-6-7---7------|
A-----------------------------------------------------------------------------------------|
E-----------------------------------------------------------------------------------------|

E------------------------------------------------------------------------|
B----------------4---4---4-5-4--5-7-8-7-8-7-8-7-5-7-5-4------------------|
G--6-4-6-4---4-5---5---5--------------------------------5-4---4---4---4--|
D----------7------------------------------------------------7---7---7----|
A------------------------------------------------------------------------|
E------------------------------------------------------------------------|

E----------------------------------------------------------------------------------|
B----4---4-5-4---4----------------4---4---4--5--4--5--7--8-7-8-7-5-7-5-4---4-------|
G--5---5-------5----5-4---4-5-4-5---5---5--------------------------------5---5-4~--|
D-----------------------7----------------------------------------------------------|
A----------------------------------------------------------------------------------|
E----------------------------------------------------------------------------------|


slow riff before bass part:
E--6--7--6~------------------------------------------------------------------|
B------------8-7-8--7-5-7--5-4-5~---7-8-7--5-7-5--4-5-4--4---4---------------|
G----------------------------------------------------------5---5-4-5-4---4~--|
D----------------------------------------------------------------------7-----|
A----------------------------------------------------------------------------|
E----------------------------------------------------------------------------|

bass part:
E-----------------------------------------------------------------------|
B-----------------------------------------------------------------------|
G-----------------------------------------------------------------------|
D-----------------------------------------------------------------------|
A-------5---------4---------3---------2---------1---------0-------------|
E---7-7---7---6-6---6---5-5---5---4-4---4---3-3---3---2-2---2-1-1-4-1-0-|

outro:
E--7--8--7--5--7--|
B-----------------|
G-----------------|
A-----------------|
D-----------------|
E-----------------|

            
            
Suggest correction
Creating personal tab
Creating personal tab
You can edit any tab online and save it as your Personal.

You can edit, replace or remove any tab part or add personal notes – all changes will be seen only by you.

Personal tabs can be accessed anytime from any device, even offline.
Learn more »
comments
print report bad tab
guest
You may want to rate the tab now too:
select rating
Wanna post a correction for this tab? Suggest correction