Oops, an error
Loading. Please wait.

To The Sky bass

version 2
version 2

Whole song

851 views 1 this week
no commentswrite comment
1 2 3 4 5
3 more votes to show rating
add to favorites
×
Save as Personal and add changes to this tab that will be seen only by you. Learn more ›
×
You can save this tab as Personal to edit and correct it or add notes. All changes will be seen only by you. Learn more »
launch autoscroll
font size
0
reset
guitar tuner
edit
Autoscroll
slow
fast
+/-
esc
set tempo
stop
To The Sky by The Cure
Bass Tabs by IncurableNikki
incurablenikki@yahoo.com

This is pretty much what I can make out from 
the song. The asterisk (*) means to repeat the 
note and in this song’s case, it’s meant to be 
played in double time or as 32nd notes. You can 
hear it in the song. Enjoy!

(Enter with drums)
G-|-----------------|-------------------|-----------------|-----------------|
D-|--------4--4-4/67|-------------------|--------4--4-4/67|-----------------|
A-|0--0-024---------|5--5-5545--5/7****7|0--0-024---------|5--5-5545--5/7754|
E-|-----------------|-------------------|-----------------|-----------------|

G-|----------------|-------------------|----------------|-----------------|
D-|----------------|-------------------|----------------|-----------------|
A-|0--0-024-------0|5--5-5545--5/7****7|0--0-024-------0|5--5-5545--5/7754|
E-|--------2--2-24-|-------------------|--------2--2-24-|-----------------|

One perfect morning…
G-|-----------------|-------------------|-----------------|-----------------|
D-|--------4--4-4/67|-------------------|--------4--4-4/67|-----------------|
A-|0--0-024---------|5--5-5545--5/7****7|0--0-024---------|5--5-5545--5/7754|
E-|-----------------|-------------------|-----------------|-----------------|

Drifting, I was falling…
G-|----------------|-------------------|----------------|-----------------|
D-|----------------|-------------------|----------------|-----------------|
A-|0--0-024-------0|5--5-5545--5/7****7|0--0-024-------0|5--5-5545--5/7777|
E-|--------2--2-24-|-------------------|--------2--2-24-|-----------------|

And in my dreams…					Flowers in my mouth…
G-|---------------------|-----------------|---------------------|----------------|
D-|---------------------|-----------------|---------------------|----------------|
A-|8--8-7878--8/10****10|0--0-0240--0-024/|8--8-7878--8/10****10|0--0-0240--0-024|
E-|---------------------|-----------------|---------------------|----------------|

And I was floating…			    Up to the stars… 
G-|-------------------|----------------|-------------------|----------------|
D-|-------------------|----------------|-------------------|----------------|
A-|-------------------|------02--------|-------------------|------02--------|
E-|1--1-0101--1/3****3|0--024--0--0-024|1--1-0101--1/3****3|0--024--0--0-024|

Up up up to heaven…			    Up up up forever				
G-|-------------------|----------------|-------------------|----------------|
D-|-------------------|----------------|-------------------|----------------|
A-|1--1-0101--1/3****3|0--0-0000--0-000|1--1-0101--1/3****3|0--0-0240--0-024|
E-|-------------------|----------------|-------------------|----------------|

Up up up to heaven…			    Up up up forever	
G-|-------------------|----------------|-------------------|----------------|
D-|-------------------|----------------|-------------------|----------------|
A-|1--1-0101--1/3****3|0--0-0000--0-000|1--1-0101--1/3****3|0--0-0240-------|
E-|-------------------|----------------|-------------------|----------------|


G-|-----------------|-------------------|-----------------|-----------------|
D-|--------4--4-4/67|-------------------|--------4--4-4/67|-----------------|
A-|0--0-024---------|5--5-5545--5/7****7|0--0-024---------|5--5-5545--5/7754|
E-|-----------------|-------------------|-----------------|-----------------|


G-|----------------|-------------------|----------------|-----------------|
D-|----------------|-------------------|----------------|-----------------|
A-|0--0-024-------0|5--5-5545--5/7****7|0--0-024-------0|5--5-5545--5/7754|
E-|--------2--2-24-|-------------------|--------2--2-24-|-----------------|

Turning in my climb…
G-|-----------------|-------------------|-----------------|-----------------|
D-|--------4--4-4/67|-------------------|--------4--4-4/67|-----------------|
A-|0--0-024---------|5--5-5545--5/7****7|0--0-024---------|5--5-5545--5/7754|
E-|-----------------|-------------------|-----------------|-----------------|

And sang in recollection…
G-|----------------|-------------------|----------------|-----------------|
D-|----------------|-------------------|----------------|-----------------|
A-|0--0-024-------0|5--5-5545--5/7****7|0--0-024-------0|5--5-5545--5/7777|
E-|--------2--2-24-|-------------------|--------2--2-24-|-----------------|

And in my dreams…					 Flowers in my mouth…
G-|---------------------|-----------------|---------------------|----------------|
D-|---------------------|-----------------|---------------------|----------------|
A-|8--8-7878--8/10****10|0--0-0240--0-024/|8--8-7878--8/10****10|0--0-0240--0-024|
E-|---------------------|-----------------|---------------------|----------------|

And I was floating…			    Up to the stars… 
G-|-------------------|----------------|-------------------|----------------|
D-|-------------------|----------------|-------------------|----------------|
A-|-------------------|------02--------|-------------------|------02--------|
E-|1--1-0101--1/3****3|0--024--0--0-024|1--1-0101--1/3****3|0--024--0--0-024|

Up up up to heaven…			    Up up up forever				
G-|-------------------|----------------|-------------------|----------------|
D-|-------------------|----------------|-------------------|----------------|
A-|1--1-0101--1/3****3|0--0-0000--0-000|1--1-0101--1/3****3|0--0-0240--0-024|
E-|-------------------|----------------|-------------------|----------------|

Up up up to heaven…			    Up up up forever	
G-|-------------------|----------------|-------------------|----------------|
D-|-------------------|----------------|-------------------|----------------|
A-|1--1-0101--1/3****3|0--0-0000--0-000|1--1-0101--1/3****3|0--0-0240-------|
E-|-------------------|----------------|-------------------|----------------|




            
            
Suggest correction
Creating personal tab
Creating personal tab
You can edit any tab online and save it as your Personal.

You can edit, replace or remove any tab part or add personal notes – all changes will be seen only by you.

Personal tabs can be accessed anytime from any device, even offline.
Learn more »
Give kudos to tab author, rate the tab!
1 2 3 4 5
comments
print report bad tab
guest
You may want to rate the tab now too:
select rating
Wanna post a correction for this tab? Suggest correction