Oops, an error
Loading. Please wait.

We Had A Good Thing Goin bass

43 views 6 this week
no commentswrite comment
1 2 3 4 5
3 more votes to show rating
add to favorites
×
Save as Personal and add changes to this tab that will be seen only by you. Learn more ›
×
You can save this tab as Personal to edit and correct it or add notes. All changes will be seen only by you. Learn more »
launch autoscroll
font size
0
reset
guitar tuner
edit
Autoscroll
slow
fast
+/-
esc
set tempo
stop
Author
Difficulty
Tabbed by: 6METAL6BASSIST6
E-mail: petergriffinav@gmail.com

Tuning: EADG

G|------------------------------------------------------------------------10----10----10----10-8----|
D|-----------------------------------------------------------------------------------------------10-|
A|--------------------------------------------------------------------------------------------------|
E|--------------------------------------------------------------------------------------------------|

G|------------------------------------------------------------------------------------10--10-10-8----|
D|----------------------10----------------10----10----------------------10------------------------10-|
A|8-----8-----8-----8-----8-----8-----8-----8-----8-----8-----8-----8-----8-----8--------------------|
E|---------------------------------------------------------------------------------------------------|

G|------------------------------------------------------------7-----------------------------------|
D|----------10------------------------------------------3---7-------7-\---5-----------------------|
A|8-----8-----8-----8-----6-----6-----5-----5-----3-----------------------------10\---3-----3-/---|
E|------------------------------------------------------------------------------------------------|



G|------------------10----------------------10----------------------10----------------10----------|
D|------------10----------------------10----------------------10----------------10----------10----|
A|8-----8---------8-------8-----8---------8-------8-----8---------8-------8---8-----8-----8-------|
E|------------------------------------------------------------------------------------------------|

G|------------10----------------------------------------------7-----------------------------------|
D|------10--------/-10----------------------------------3---7-------7-\---5-----------------------|
A|8---------8-----------8-6-----6-----5-----5-----3-----------------------------10\---3-----3-/---|
E|------------------------------------------------------------------------------------------------|

G|------------------------------------------------|
D|------------------------------------------------|
A|8-----------------------------------------------|
E|------------------------------------------------|

0:38

G|------------------------------------------------------------------------------------------------|
D|----------11----------------------------------------------------------/-11--/-11----9---7-------|
A|9-----------9---9-------7-----------7---7-------6-----------6---6-------------------------9-----|
E|----------------------------------7-----------------------6-----------------------------------9-|

G|------------------------------------------------------------------------------------------------|
D|----------11----------------------------------------------------------/-11--/-11----9---7-------|
A|9-----------9---9-------7-----------7---7-------6-----------6---6-------------------------9-----|
E|----------------------------------7-----------------------6-------------------------------------|

G|----------------------------------------------------------------------------------------------/-|
D|7-----7-----9-----9-----------------------------7-----7-----7-----7-----9-----9-----11----11----|
A|----------------------9-------------------------------------------------------------------------|
E|------------------------------------------------------------------------------------------------|

G|11--/-11--/-11--/-11--/-11--/-11--/-11--/-11----------11----------11----------11----11--11-11-9----|
D|------------------------------------------------------------------------------------------------11-|
A|---------------------------------------------------------------------------------------------------|
E|---------------------------------------------------------------------------------------------------|

1:07

G|------------------------------------------------------------8-----------------------------------|
D|----------11------------------------------------------4---8-------8-----6-----------------------|
A|9-----9-----9-----9-----7-----7-----6-----6-----4-----------------------------11\---4-----4-/---|
E|------------------------------------------------------------------------------------------------|

G|------------------------------------------------|
D|------------------------------------------------|
A|9-----------------------------------------------|
E|------------------------------------------------|

1:18

G|-------------------------------------------------------------------------------------------------|
D|----------------------------------------------------------------------------------------------12-|
A|10----10----10----10----10----10----10----10----10----10----10----10----10----10----10----10-----|
E|----------10----------10----------10----------10----10----10----10----10----------10-------------|

G|----------------------------------------12-----------------12------------12--------------12-------|
D|----------12----------12----------12------12-----------------12------------12--------------12-----|
A|10----10----10----10----10----10----10--------12-10----10------10----10------10----10--------10---|
E|--------------------------------------------------------------------------------------------------|

G|12--------12---|
D|--12--------12-|
A|----10---------|
E|---------------|

1:32

G|-------------------------------------------------------------------------------------------------|
D|-------------------------------------------------------------------------------------------------|
A|10----10----10----10----10----10----10----10----10----10----10----10----10----10----10----10-----|
E|----------10----------10----------10----------10----------10----10----10----------10----------10-|

G|------------------------------------------------------------------------------------------------|
D|------------------------------------------------------------------------------------------------|
A|10----10----10----10----8-----8-----7-----7-----5-----------------------------------------------|
E|----------10------------------------------------------------------------------------------------|

G|------------------------------------------------------12--------12-10----------------------------|
D|-----------------------------------------------------------------------12----/-12----10----8-----|
A|-------------------------------------------------------------------------------------------------|
E|-------------------------------------------------------------------------------------------------|

1:52

G|------------------------------------------------------------------------------------------------|
D|------------------------7-----7-----------------5-----4-----------------------------------7-----|
A|10----9-----7-----5-----------------5-----12\---------------7-----5-----------7-----5---5-----5-|
E|----------------------------------------------------------------------7-5---------5-------------|

G|------------------------------------------------------------------------------------------------|
D|5-----4-----------------------------------7-----5-----4-----------------------------------7-----|
A|------------7-----5-----------7-----5---5-----5-------------7-----5-----------7-----5---5-----5-|
E|----------------------7-5---------5-----------------------------------7-5-----------------------|

G|------------------------------------------------------------------------------------------------|
D|5-----4-----------------------------------7-----5-----4-----------------------------------7-----|
A|------------7-----5-----------7-----5---5-----5-------------7-----5-----------7-----5---5-----5-|
E|----------------------7-5---------5-----------------------------------7-5---5-------------------|

2:13

G|------------------------------------------------------------------------------------------------|
D|5-----4-----------------------------------7-----5-----4-----------------------------------7-----|
A|------------7-----5-----------7-----5---5-----5-------------7-----5-----------7-----5---5-----5-|
E|------------------------5---5-----5-----------------------------------7-5---------5-------------|

G|------------------------------------------------------------------------------------------------|
D|5-----4-----------------------------------7-----5-----4-----------------------------------7-----|
A|------------7-----5-----------7-----5---5-----5-------------7-----5-----------7-----5---5-----5-|
E|----------------------7-5---------5-----------------------------------7-5---------5-------------|

G|----------7-9-----7-----------------------------------------------------------------------------|
D|5---/-9---------------9-7-----7-\---------------5-----4-----------------------------------7-----|
A|------------------------------------5-----5-----------------7-----5-----------7-----5---5-----5-|
E|----------------------------------------------------------------------7-5---------5-------------|

G|------------------------------------------------------|
D|5-----4-----------------------------------7-----5-----| fades out here.
A|------------7-----5-----------7-----5---5-----5-------|
E|----------------------7-5-----------------------------|

            
            
Suggest correction
Creating personal tab
Creating personal tab
You can edit any tab online and save it as your Personal.

You can edit, replace or remove any tab part or add personal notes – all changes will be seen only by you.

Personal tabs can be accessed anytime from any device, even offline.
Learn more »
Give kudos to tab author, rate the tab!
1 2 3 4 5
comments
print report bad tab
guest
You may want to rate the tab now too:
select rating
Wanna post a correction for this tab? Suggest correction