Oops, an error
Loading. Please wait.

Sasha Dont Sleep tab

452 views 1 this week
no commentswrite comment
1 2 3 4 5
2 more votes to show rating
add to favorites
×
Save as Personal and add changes to this tab that will be seen only by you. Learn more ›
×
You can save this tab as Personal to edit and correct it or add notes. All changes will be seen only by you. Learn more »
launch autoscroll
font size
0
reset
how to read this tab
guitar tuner
edit
Autoscroll
slow
fast
+/-
esc
set tempo
stop
Author
Difficulty
------------------------------------------------------------------------------
                             Sasha Don't Sleep- The Dance Party
-------------------------------------------------------------------------------
Tabbed by: Cody Love
Email: codylovefnzp@gmail.com

Tuning:Standard.

So this is the version from the Tigers EP, which isn't different guitar wise from the 
Touch version (to my knowledge).
First tab. I'm sure you'll be able to pick up the timing.
Corrections/Comments/Concerns? Let me know.

Intro/Chorus Chords-


e|------------------------------------------------------------------------------|
B|------------------------------------------------------------------------------|
G|-----------------999----------------------------------------------------------|
D|666-777-999-9999-999-999-777-7777---------------------------------------------|
A|666-777-999-9999-777-999-777-7777---------------------------------------------|
E|444-555-777-7777-----777-555-5555---------------------------------------------|

Repeat that twice in the beginning, then it goes into the verse riff.

I believe Kevin Bayly does a little harmonic in the single note sections. I personally 
just get some vibrato out of the ending note.

e|-----------------------------------------------------------------------------|
B|-----------------------------------------------------------------------------|
G|-9----9---------9---9----9---------4-9---------9---9------99-99-99-----------|
D|-9-99-9-99--7-9---9-9-99-9-77--6-7---9-99--7-9---9-9-9999-99-99-99-----------|
A|-7-99-7-99----------7-99-7-77--------7-99----------7-9999-77-77-77-----------|
E|---77---77------------77---57----------79------------7777--------------------|

The final few chords are played precisely with Coogan singing "Get up! Get up! Get up!" 
to bridge into the Chorus chords above.

Chorus Chords x2
Verse Riff x1

The breakdown with the Coogs singing "I know my baby loves me." Is similar to the intro 
chords, at first it's slightly muted, then played. Listen to the song for the exact timing.


e|---------------------------------------------------------------------------|
B|---------------------------------------------------------------------------|
G|-----------------9999999---------------------------------------------------|
D|-6666666-7777777-9999999-9999999-------------------------------------------|
A|-6666666-7777777-7777777-9999999-------------------------------------------|
E|-4444444-5555555---------7777777-------------------------------------------|

After this, it's the main riff, minus the bridging chords like this:


e|-----------------------------------------------------------------------------|
B|-----------------------------------------------------------------------------|
G|-9----9---------9---9----9---------4-9---------9-----------------------------|
D|-9-99-9-99--7-9---9-9-99-9-77--6-7---9-99--7-9---9---------------------------|
A|-7-99-7-99----------7-99-7-77--------7-99------------------------------------|
E|---77---77------------77---57----------79------------------------------------|

Then play it in full for the next verse,
then chorus chords x2
then the breakdown part. But this time end the breakdown on the "Get Up! Put up! 
Or Shut up!" with-

e|---------------------------------------------------------------------------|
B|---------------------------------------------------------------------------|
G|-99-99-99------------------------------------------------------------------|
D|-99-99-99------------------------------------------------------------------|
A|-77-77-77------------------------------------------------------------------|
E|---------------------------------------------------------------------------|

Theres one more hook to go so play them verse chords x2 again.
And it's finished.

Hopefully this wasn't confusing in anyway and you guys can enjoy playing the song. :D


************************************

| /   slide up
| \   slide down
| h   hammer-on
| p   pull-off
| ~   vibrato
| +   harmonic
| x   Mute note
| b   Bend
| pb  Pre-bend
| br  Bend release
| pbr Pre-bend release
| brb Bend release bend

************************************

            
            
Suggest correction
Creating personal tab
Creating personal tab
You can edit any tab online and save it as your Personal.

You can edit, replace or remove any tab part or add personal notes – all changes will be seen only by you.

Personal tabs can be accessed anytime from any device, even offline.
Learn more »
Give kudos to tab author, rate the tab!
1 2 3 4 5
comments
print report bad tab
guest
You may want to rate the tab now too:
select rating
Wanna post a correction for this tab? Suggest correction