Oops, an error
Loading. Please wait.

Bohemian Like You tab

version 2
version 2
7,274 views 15 this week
2 commentsread comments
1 2 3 4 5
x 6
add to favorites
×
Save as Personal and add changes to this tab that will be seen only by you. Learn more ›
×
You can save this tab as Personal to edit and correct it or add notes. All changes will be seen only by you. Learn more »
launch autoscroll
font size
0
reset
how to read this tab
guitar tuner
backing track
0:00
0:00
edit
Autoscroll
slow
fast
+/-
esc
set tempo
stop
E---|-----------------|--2--2--3--3--2--|-----------------|--4--4--5----
B---|--4--4--5--5--4--|--3--3--3--3--3--|--2--2--3--3--2--|--5--5--5----
G---|--4--4--4--4--4--|--2--2--2--2--2--|--2--2--2--2--2--|--4--4--4----
D---|--4--4--4--4--4--|--0--0--0--0--0--|--2--2--2--2--2--|-------------
A---|-----------------|-----------------|-----------------|-------------
E---|-----------------|-----------------|-----------------|-------------
                                                                        

                                                                        
E---5--4--||--------------------------|--------------------------|------
B---5--5--||--------------------------|--------------------------|------
G---4--4--||--------------------------|--7--7--7--7--7--7--7--7--|------
D---------||--9--9--9--9--9--9--9--9--|--7--7--7--7--7--7--7--7--|------
A---------||--9--9--9--9--9--9--9--9--|--5--5--5--5--5--5--5--5--|------
E---------||--7--7--7--7--7--7--7--7--|--------------------------|------
                                                                        

                                                                        
E---------------------------|--------------------------|----------------
B---------------------------|--------------------------|----------------
G---------------------------|--9--9--9--9--9--9--9--9--|----------------
D---7--7--7--7--7--7--7--7--|--9--9--9--9--9--9--9--9--|----------------
A---7--7--7--7--7--7--7--7--|--7--7--7--7--7--7--7--7--|----------------
E---5--5--5--5--5--5--5--5--|--------------------------|----------------
                                                                        
these are the two main riffs in bohemian like you by the beautiful dandy warhols. 
every time i try to make changes to this file my computer crashes so i have to leave 
it like this, but the riffs are seporated by the double line. 

for the first one you just hammer on your little finger. i think this is all right. 
any changes feedback etc my address is hungwell84@hotmail.com

            
            
Suggest correction
Creating personal tab
Creating personal tab
You can edit any tab online and save it as your Personal.

You can edit, replace or remove any tab part or add personal notes – all changes will be seen only by you.

Personal tabs can be accessed anytime from any device, even offline.
Learn more »
comments
print report bad tab
2 comments total.
-1 reply
BrianMS 10 Apr 09, 2009 07:37 PM

Pretty simple for a beginner like me. Not very bassy, but it still sounds pretty cool. Thanks!

0 reply
verantiadesign 14 May 14, 2017 07:01 PM, edited at 11:07 pm

The intro is not correct: Provided A# in 3rd bar should be A. I added a correction, please change. Also you could just play this in just powerchords instead of hammering. You just need to fully ring out 5 or 6 strings (depending on the chord) on every hammer, this sounds more accurate. Though, I must say: this intro (when you play the correct A chord instead of A#) sounds really good in a live setting with 2 guitars.

guest
Wanna post a correction for this tab? Suggest correction