Oops, an error
Loading. Please wait.

Symmetry tab

version 2
version 2

Whole song

850 views 1 this week
2 commentsread comments
1 2 3 4 5
1 last vote to show rating
add to favorites
×
Save as Personal and add changes to this tab that will be seen only by you. Learn more ›
×
You can save this tab as Personal to edit and correct it or add notes. All changes will be seen only by you. Learn more »
launch autoscroll
font size
0
reset
how to read this tab
guitar tuner
edit
Autoscroll
slow
fast
+/-
esc
set tempo
stop
Artist: The Dangerous Summer
Song: Symmetry
Tabbed by: shaneburchmusic
Listen Here: http://lllmusic.blogspot.com/2010/12/dangerous-summer-symmetry.html

Standard

Intro

E ----------------------------------------|
B ----------------------------------------|
G -4--4--4--4-----------------------------|
D -4--4--4--4-----------------------------|
A -x--2--2--2-----------------------------|
E -4--2--0--2-----------------------------|

Verse

E ----------------------------------------|
B ----------------------------------------|
G -4--4--4--4-----------------------------|
D -4--4--4--4-----------------------------|
A -x--x--2--2-----------------------------|
E -x--4--2--0-----------------------------|

Chorus

E ----------------------------------------|
B ----------------------------------------|
G -4--4--4--4-----------------------------|
D -4--4--4--4-----------------------------|
A -x--2--2--2-----------------------------|
E -4--2--0--2-----------------------------|


Bridge

E ------------------------------------------|
B ------------------------------------------|
G -4--4--4--4--4----------------------------|
D -4--4--4--4--4----------------------------|
A -x--2--x--2--2----------------------------|
E -4--2--4--2--0----------------------------|

            
            
Suggest correction
Creating personal tab
Creating personal tab
You can edit any tab online and save it as your Personal.

You can edit, replace or remove any tab part or add personal notes – all changes will be seen only by you.

Personal tabs can be accessed anytime from any device, even offline.
Learn more »
Give kudos to tab author, rate the tab!
1 2 3 4 5
comments
print report bad tab
2 comments total.
0 reply
nmastah3 327 Aug 03, 2011 02:25 PM

way to include lead guitar...

0 reply
nmastah3 327 Aug 03, 2011 02:27 PM

oh and way to include a correct tab...this is completely incorrect. its drop d not half-step down standard. and even if it was half step standard, this tab would still be wrong. take it down.

guest
You may want to rate the tab now too:
select rating
Wanna post a correction for this tab? Suggest correction