Oops, an error
Loading. Please wait.

Growing On Me tab

version 2
version 2
18,570 views 27 this week
8 commentsread comments
1 2 3 4 5
x 19
add to favorites
×
Save as Personal and add changes to this tab that will be seen only by you. Learn more ›
×
You can save this tab as Personal to edit and correct it or add notes. All changes will be seen only by you. Learn more »
launch autoscroll
font size
0
reset
how to read this tab
guitar tuner
backing track
0:00
0:00
edit
Autoscroll
slow
fast
+/-
esc
set tempo
stop
The Darkness
Growing on Me
Permission to Land
By Andrew Summers
Drop D Tuning

Heres a tab for the darkness, great band, great guitar, great cat suits, what
more can i say??? im wearing mine now........... Fun song to play this, so enjoy.

Intro

E------5-----5---------------------------------------------------------------
B--------3-----3-----------------5-------------------------------------------
G-----------------------------7-----7----------------------------------------
D----------0-----0---------7------------------7-5-4-0-5-4-0------------------
A--5-----------------4--5---------------------7-5-4-0-5-4-0------------------
D---------------------------------------------7-5-4-0-5-4-0------------------
  {                 x3                 }      Then


Verse

-----------------------------------------------------------------------------
-----------------------------------------------------------------------------
-----------------------------------------------------------------------------
-0-7-9----------0-7-9-5-4-5-4-0----------------------------------------------
-0-7-9----------0-7-9-5-4-5-4-0----------------------------------------------
-0-7-9----------0-7-9-5-4-5-4-0----------------------------------------------

Back to the intro for the bridge


Chorus

-----------------------------------------------------------------------------
-----------------------------------------------------------------------------
-------7---------------------------------------------------------------------
-4-5-7-7------------------7-5-4-0-5-4-0--------------------------------------
-4-5-7-5------------------7-5-4-0-5-4-0--------------------------------------
-4-5-7--------------------7-5-4-0-5-4-0--------------------------------------
  {x3}             Then

Play Verse again and intro for bridge And then the chorus


Riff before Solo

-----------------------------------------------------------------------------
-----------------------------------------------------------------------------
-12-12-11-11-6-6-7-7---------------------------------------------------------
-x---x-x--x--x-x-x-x---------------------------------------------------------
-10-10-9--9--4-4-5-5---------------------------------------------------------
-----------------------------------------------------------------------------

Solo 1 ROCK!!!

-----------------------------------------------------------------------------
----------------------------------7-8-10-8-7-------17b-17b-17b---15-17-17b-15
-----------------------7-7-9-7-9b------------9-9br-------------16------------
-----------------------------------------------------------------------------
-5-5-0-5-5-7br-5-7br-5-------------------------------------------------------
-----------------------------------------------------------------------------


-17b-17-15-14h15p14----------------------------------------------------------
--------------------------17-------------------------------------------------
-----------------------------------------------------------------------------
-----------------------------------------------------------------------------
-----------------------------------------------------------------------------
-----------------------------------------------------------------------------


Play chorus again


Solo 2 RRROOOCKK!!!!

---------------------------------------------------2-2-2-0h2p0--0------------
--------------------------------------------------------------3---3-2h02h0---
-----------------------------------------------------------------------------
----------------12-11-12p11-9-9----12b-12b-12b-12b---------------------------
-5-7b-5-7-7brbr-----------------12-------------------------------------------
-----------------------------------------------------------------------------


-----------------------------------------------------------------------------
--------------------------------------------------------15-14-15p14-12-12----
--2h02h0------------------------------------------------------------------14-
---------4p2p0------------12-{hold}-14br-12-14-14br-14b----------------------
-----------------------------------------------------------------------------
-----------------------------------------------------------------------------


----------------------------17-----17-----17-----17--------------------------
-15b-15b-15b-15b--------17b----17b----17b----17b-----------------------------
-----------------------------------------------------------------------------
-----------------------------------------------------------------------------
-----------------------------------------------------------------------------
-----------------------------------------------------------------------------


thats basically it folks, if you wanna do like Justin does live well then just
solo round the 17t fret area on the E string, incase you cant be f####d heres
what i play to polish the song off...........


---14-15-14h15p14-17p14-19p14-17p14-17p14-15p14-15p14------------------------
------------------------------------------------------17p15p14-17b{holdbend}-
-----------------------------------------------------------------------------
-----------------------------------------------------------------------------
-----------------------------------------------------------------------------
-----------------------------------------------------------------------------


And end on 

-----------------------------
-----------------------------
-7---------------------------
-7---------------------------
-5---------------------------
-----------------------------

Or you could just ignore the improv bit of mine and add ur own, improvise PPL!!!! Rock on

            
            
Suggest correction
Creating personal tab
Creating personal tab
You can edit any tab online and save it as your Personal.

You can edit, replace or remove any tab part or add personal notes – all changes will be seen only by you.

Personal tabs can be accessed anytime from any device, even offline.
Learn more »
comments
print report bad tab
8 comments total. Showing first comments.
0 reply
Gruff182 10 Sep 17, 2003 08:00 PM

This is the correct intro

------5-----5------5------------------0--------------------------
--------3-----3------3----3-------3-----3----------------------3-----
---2------2-----2-------2-------2---2---------222--------------2-----
---0--------------------------0---------------222--------------0-----
----------------------------4-----------------000--0-5-5-0-5-5-0-----
---------------------------------------------------0-5-4-0-5-4-0--14\
correct intro repeat few times then--------- x From Gruff182@aol.com

0 reply
B_simon935 10 Sep 27, 2003 08:00 PM

I think the Intro goes:

|------5-----5---------------------------------------------|
|--------5-----5---5--------------5------------------------|
|----------7-----7-----------7------7----------------------|
|--------------------------7-------------------------------|
|--5-------------------4-5---------------------------------|
|----------------------------------------------------------|

|------5-----5---------------------------------------------|
|--------5-----5---5--------------5------------------------|
|----------7-----7-----------7------7----------------------|
|--------------------------7-------------------------------|
|----------------------4-5---------------------------------|
|----------------------------------------------------------|

|------5-----5--------------------|-------------------|-------------|
|--------5-----5---------------5--|-2-2-2-2-2-2-2-2---|-------------|
|----------7-----7-----------7----|-2-2-2-2-2-2-2-2---|-------------|
|--------------------------7------|-2-2-2-2-2-2-2-2---|-5-4-0-5-4-0-|
|----------------------4-5--------|-0-0-0-0-0-0-0-0---|-5-4-0-5-4-0-|
|---------------------------------|-------------------|-5-4-0-5-4-0-|

ETC.

This is an Excellent song!! Well Fun to play!
This sounds exactly right!

0 reply
j0nmcc 210 Oct 11, 2003 08:00 PM

good tab

guest
Wanna post a correction for this tab? Suggest correction