Oops, an error
Loading. Please wait.

Last Of Our Kind bass

950 views 6 this week
no commentswrite comment
1 2 3 4 5
x 3
add to favorites
×
Save as Personal and add changes to this tab that will be seen only by you. Learn more ›
×
You can save this tab as Personal to edit and correct it or add notes. All changes will be seen only by you. Learn more »
launch autoscroll
font size
0
reset
guitar tuner
edit
Autoscroll
slow
fast
+/-
esc
set tempo
stop
Author
Difficulty
-------------------------------------------------------------------------------
                             Last Of Our Kind - The Darkness
-------------------------------------------------------------------------------
Tabbed by: Andrew P
Tuning: Standard

This is my favourite song on the album which is saying something because it's a crazily good album. While 
the notation is simple enough working out when bars begin and end is a bit tricky on this song so to get the 
timing you're just going to have to listen to the actual track.

Anyway enjoy and please give me any corrections.

~~~ means that there's a bit with no bass

~~~

Verse 1: "We have sat like this..."
G|--------------------------------|--------------------------------|
D|2---2-2-2-2-2-2-2-2-2-2-2-2-1-2-|2-2-2-2-2-2-2-2-2-2-2-2-2-2---2-|  
A|--------------------------------|----------------------------2---|
E|--------------------------------|--------------------------------|
                        
G|--------------------------------|--------------------------------|
D|2-2-2-2-2-2-2-2-2-2-2-2-2-2-1-2-|2-2-2-2-2-2-2-2-2---------------|  
A|--------------------------------|--------------------------------|
E|--------------------------------|--------------------------------|
                              
G|--------------------------------|--------------------------------|
D|--------------------------------|--------------------------------|
A|--------------------------------|--------------------------------|
E|0---0-0-0-0-0-0-0-0-0-0-0-0-0-0-|0-0-0-0-0-0-0-0-0-0-0-0-0-0-0-0-|

G|--------------------------------|--------------------------------|
D|--------------------------------|--------------------------------|
A|--------------------------------|-----------------------------11-|
E|0-0-0-0-0-0-0-0-0-0-0-0-0-0-0-0-|0-0-0-0-0-0-0-0-0---------------|

Pre-chorus: "We are survivors..."
G|----------------------------------|--------------------------------|
D|----------------------------------|--------------------------------|
A|12---12-11-11-9---7---9-9-7-7---4-|2---2-2-2-2---2---2-2-2-2---6-6-|
E|----------------------------------|--------------------------------|

G|----------------------------------|--------------------------------|
D|----------------------------------|--------------------------------|
A|4---4-4-4-4---4/--6-6-6-7---11-11-|12---12-12-12-12-12-12-12-12----|
E|----------------------------------|--------------------------------|

Chorus: "Children..."
G|--------------------------------|--------------------------------|
D|----------------2---------------|--------------------------------|
A|4-------0-------------2---2---3-|4-------0-----------------2---3-|
E|--------------------------------|----------------0-----2---------|

G|--------------------------------|--------------------------------|
D|--------------------------------|--------------------------------|
A|4-------0-----------------2---3-|4-------0-----------------2---3-|
E|----------------0-----2---------|----------------0-----2---------|

G|--------------------------------|--------------------------------|
D|--------------------------------|--------------------------------|
A|4-4-4-4-0-0-0-0-----------2-2-3-|4-4-4-4-0-0-0-0-----------2-2-4-|
E|----------------0-0-0-2-2-------|----------------0-0-0-2-2-------|

Chorus End 1:
G|--------------------------------|--------------------------------|
D|--------------------------------|--------------------------------|
A|0---------------4-----------0-1-|2-------------------------------|
E|--------------------------------|------------0-1-2---------------|

G|--------------------------------|-------------------------|
D|--------------------------------|-------------------------|
A|12--------------11\-------------|2------------------------|
E|--------------------------------|-------------------------|

Verse 2: "All the jackals and the undead..."
G|--------------------------------|--------------------------------|
D|2---2-2-2-2-2-2-2-2-2-2-2-2-1-2-|2-2-2-2-2-2-2-2-2-2-2-2-2-2---2-|  
A|--------------------------------|----------------------------2---|
E|--------------------------------|--------------------------------|
                        
G|--------------------------------|--------------------------------|
D|2-2-2-2-2-2-2-2-2-2-2-2-2-2-1-2-|2-2-2-2-2-2-2-2-2---------------|  
A|--------------------------------|--------------------------------|
E|--------------------------------|--------------------------------|
                              
G|--------------------------------|--------------------------------|
D|--------------------------------|--------------------------------|
A|--------------------------2-2-2-|0---0-0-0-0-0-0-0-0-0-0-0-4-4-4-|
E|0---0-0-0-0-0-0-0-0-0-0-0-------|--------------------------------|

G|-----------------------------------|---------------------------------------------|
D|-----------------------------------|---------------------------------------------|
A|2---2-2-2-2-2-2-2-2-2-2---11-11-11-|12---12-12-12-12-12-12-12-12-12-12-12-----11-|
E|-----------------------------------|---------------------------------------------|

Pre-chorus and chorus repeat

Chorus End 2:
G|--------------------------------|--------------------------------------------------------|
D|--------------------------------|--------------------------------------------------------|
A|0-----2---4---0---4---2-2-----0-|0-----2---4---0-0-0-0-0-0-0-0-0/12-12-12-12-12-12-12-12-|
E|--------------------------------|--------------------------------------------------------|

Bridge:
G|--------------------------------|--------------------------------|
D|--------------------------------|--------------------------------|
A|4-4-0-0---------4-4-0-0---------|4-4-0-0---------4-4-0-0---------| x2
E|--------0-0-2-2---------0-0-2-2-|--------0-0-2-2---------0-0-2-2-|

Guitar solo:
G|--------------------------------|
D|--------------------------------|
A|--------------------------------|
E|0-(x56)-------------------------|

G|--------------------------------|--------------------------------|
D|--------------------------------|--------------------------------|
A|--------------------------2-2-2-|0---0-0-0-0-0-0-0-0-0-0-0-4-4-4-|
E|0---0-0-0-0-0-0-0-0-0-0-0-------|--------------------------------|

G|-----------------------------------|-----------------------------------------------|
D|-----------------------------------|-----------------------------------------------|
A|2---2-2-2-2-2-2-2-2-2-2---11-11-11-|12---12-12-12-12-12-12-12-12-12-12-12-12-12-12-|
E|-----------------------------------|-----------------------------------------------|

~~~

Chorus and Chorus End 1 repeat

The song ends with Frankie just playing 2 on the D string until the song finishes out but tabbing the way 
the song slows down at the very end would have been much more hassle than it's worth.

| /  slide up
| \  slide down
===============================================================================

            
            
Suggest correction
Creating personal tab
Creating personal tab
You can edit any tab online and save it as your Personal.

You can edit, replace or remove any tab part or add personal notes – all changes will be seen only by you.

Personal tabs can be accessed anytime from any device, even offline.
Learn more »
Give kudos to tab author, rate the tab!
1 2 3 4 5
comments
print report bad tab
guest
You may want to rate the tab now too:
select rating
Wanna post a correction for this tab? Suggest correction