Oops, an error
Loading. Please wait.

Fink For The Man bass

322 views 1 this week
no commentswrite comment
1 2 3 4 5
3 more votes to show rating
add to favorites
×
Save as Personal and add changes to this tab that will be seen only by you. Learn more ›
×
You can save this tab as Personal to edit and correct it or add notes. All changes will be seen only by you. Learn more »
launch autoscroll
font size
0
reset
guitar tuner
edit
Autoscroll
slow
fast
+/-
esc
set tempo
stop
Author
Difficulty
-------------------------------------------------------------------------------
			     Fink For the Man - Datsuns
-------------------------------------------------------------------------------

Tabbed By :WASP_God
e-mail: shaftmackell@hotmail.com

Tuning:EADG

INTRO
G|---------------------------------------------------------------------------|
D|---------------------------------------------------------------------------|
A|--7777777777--65-----------------777777777777--65--------------------------|
E|------------------5555555555-----------------------55555555555-------------|x4

Verse
G|---------------------------------------------------------------------------|
D|---------------------------------------------------------------------------|
A|--7777777777777777777777777--6666--5555------------------------------------|
E|------------------------------------------5555555555555555555--------------|x2

Chorus
G|---------------------------------------------------------------------------|
D|---------------------------------------------------------------------------|
A|--3~~-------0~~--------3~~-------55555555----5050505-----------------------|
E|---------------------------------------------------------------------------|

Fill (same as intro)
G|---------------------------------------------------------------------------|
D|---------------------------------------------------------------------------|
A|--7777777777--65-----------------777777777777--65--------------------------|
E|------------------5555555555-----------------------55555555555-------------|

Verse
G|---------------------------------------------------------------------------|
D|---------------------------------------------------------------------------|
A|--7777777777777777777777777--6666--5555------------------------------------|
E|------------------------------------------5555555555555555555--------------|x2

Chorus
G|---------------------------------------------------------------------------|
D|---------------------------------------------------------------------------|
A|---3~~------0~~------3~~--------555555555----5050505-----------------------|
E|---------------------------------------------------------------------------|

Solo
G|---------------------------------------------------------------------------|
D|---------------------------------------------------------------------------|
A|--7777777777--65-----------------777777777777--65--------------------------|
E|------------------5555555555-----------------------55555555555-------------|

G|---------------------------------------------------------------------------|
D|---------------------------------------------------------------------------|
A|--7777777777777777777777777--6666--5555------------------------------------|
E|------------------------------------------5555555555555555555--------------|

End Solo/Bass Fill
G|---------------------------------------------------------------------------|
D|----------------------------------------------------------------75---------|
A|-------------------------------------------------------------------75------|
E|----------------5---------5---------5---------5-----------5-----------75---|

G|---------------------------------------------------------------------------|
D|---------------------------------------------------------------------------|
A|----75-75-75-9----------------75-75-75-9-----------------------------------|
E|-----------------979-575-6-----------------979-575-6-----------------------|x2

Verse
G|---------------------------------------------------------------------------|
D|---------------------------------------------------------------------------|
A|--7777777777--65-----------------777777777777--65--------------------------|
E|------------------5555555555-----------------------55555555555-------------|x2

(Pick in time with guitar strum)
G|---------------------------------------------------------------------------|
D|---------------------------------------------------------------------------|
A|--7--77--7--77--7---65--------7--77--7--77--7---65-------------------------|
E|------------------------55--------------------------55---------------------|x2

Chorus/vocals re-enter
G|---------------------------------------------------------------------------|
D|---------------------------------------------------------------------------|
A|--7--77--7--77--7--65---------7--77--7--77--7--65--------------------------|
E|------------------------55-------------------------55----------------------|x2

Interlude
G|----------------------|-------------------------------|--------------------|
D|----------------------|-------------------------------|--------------------|
A|----------------------|777777777777--65---------------|--------------------|
E|--5~~-------5~~-------|-------------------55555555555-|x4 -----------------|

Chorus
G|---------------------------------------------------------------------------|
D|---------------------------------------------------------------------------|
A|---3~~------0~~------3~~---------5555555555---5050505----------------------|
E|---------------------------------------------------------------------------|

Solo
G|---------------------------------------------------------------------------|
D|---------------------------------------------------------------------------|
A|--7777777777--65-----7777777777--65----77777777777--65----7777777777--65---|
E|-----------------5------------------5------------------5-----------------5-|

End
G|---------------------------------------------------------------------------|
D|---------------------------------------------------------------------------|
A|--5\7-5\7-5\7-5\7-------7\99999999999--------------------------------------|
E|-------------------5~~---------------------5--------5~~--------------------|


| /  slide up
| \  slide down
| h  hammer-on
| p  pull-off
| ~  hold note
| +  harmonic
| x  Mute note
===============================================================================

And thats all there is too it. the song isnt too difficult, only hard part is actually 
the bass so i suggest cranking the bass boost up on your stereo when learning this tab.
this is my first tab so please feel free to email me any corrections as, althouygh it 
pretty awesome, im sure ive over simplified the more widly bits in there.

WASP_God
shaftmackell@hotmail.com

            
            
Suggest correction
Creating personal tab
Creating personal tab
You can edit any tab online and save it as your Personal.

You can edit, replace or remove any tab part or add personal notes – all changes will be seen only by you.

Personal tabs can be accessed anytime from any device, even offline.
Learn more »
Give kudos to tab author, rate the tab!
1 2 3 4 5
comments
print report bad tab
guest
You may want to rate the tab now too:
select rating
Wanna post a correction for this tab? Suggest correction