Oops, an error
Loading. Please wait.

Freeze Sucker intro tab

version 1
version 1

Intro

Whole song

Interactive

358 views 1 this week
2 commentsread comments
1 2 3 4 5
x 3
add to favorites
×
Save as Personal and add changes to this tab that will be seen only by you. Learn more ›
×
You can save this tab as Personal to edit and correct it or add notes. All changes will be seen only by you. Learn more »
launch autoscroll
font size
0
reset
how to read this tab
guitar tuner
edit
Autoscroll
slow
fast
+/-
esc
set tempo
stop
Author
I'm pretty sure this is the intro to this tune but you'll need to listen
to the song to get the timing right.


E|--------------------------------------------------
B|--------------------------------------------------
G|--------------------------------------------------
D|--------------5-----------------------------------
A|--------5-6-7----------3-4-5----------------------
E|--0-5-7----------3-4-5----------------------------

Just play this a bunch of times and try to figure out the next part.

            
            
Suggest correction
Creating personal tab
Creating personal tab
You can edit any tab online and save it as your Personal.

You can edit, replace or remove any tab part or add personal notes – all changes will be seen only by you.

Personal tabs can be accessed anytime from any device, even offline.
Learn more »
Give kudos to tab author, rate the tab!
1 2 3 4 5
comments
print report bad tab
2 comments total.
0 reply
Howlin'Keks 10 Nov 24, 2003 07:00 PM

|--------------------------------------------------------------------|--------------------------------------------------------------------
|--------------------------------------------------------------------
|-------------3-5------5-6-7-----------------------------------------
|-5-------3-5------0-3-3-4-5--------3-5...---------------------------
|---0-3-5---------------------0-3-5----------------------------------
I think it is more right

0 reply
GezzyDiversion 272 Mar 21, 2009 09:24 AM

|-------------3-5----------------------------------
|-5-------3-5------0-3-3-4-5--------3-5--------------
|---1-3-5---------------------1-3-5---------------------

guest
You may want to rate the tab now too:
select rating
Wanna post a correction for this tab? Suggest correction