Oops, an error
Loading. Please wait.

Because bass

version 1
version 1

Whole song

Interactive

4,839 views 9 this week
no commentswrite comment
1 2 3 4 5
x 3
add to favorites
×
Save as Personal and add changes to this tab that will be seen only by you. Learn more ›
×
You can save this tab as Personal to edit and correct it or add notes. All changes will be seen only by you. Learn more »
launch autoscroll
font size
0
reset
guitar tuner
edit
Autoscroll
slow
fast
+/-
esc
set tempo
stop
Author
Because
The Dave Clark Five
Written by Dave Clark and Mike Smith; released as a B-side to "Can't You See
That She's Mine"

Intro:
G|------- ------- ------- -------|------- ------- ------- -------|
D|-------------------------------|-------------------------------|
A|-------------------------------|-------------------------------|
E|3-----------3---3--------------|3-----------3---3--------------|



G|------- ------- ------- -------|------- ------- ------- -------|
D|-------------------------------|-------------------------------|
A|-------------------------------|-------------------------------|
E|3-----------3---3--------------|3-----------3---3--------------|
                                                          It's

Verse:
G|------- ------- ------- -------|------- ------- ------- -------|
D|-------------------------------|-------------------------------|
A|-------------------------------|-------------------------------|
E|3-----------3---3--------------|3-----------3---3--------------|
  right                   that    I       should  care        a-


G|------- ------- ------- -------|------- ------- ------- -------|
D|-------------------------------|-------------------------------|
A|-------------------------------|-------------------------------|
E|3-----------3---3--------------|3-----------3---3--------------|
  bout    you,                                                And


G|------- ------- ------- -------|------- ------- ------- -------|
D|-------------------------------|-------------------------------|
A|----------------7--------------|----------------7--------------|
E|5-----------5------------------|5-----------5-----------5------|
  try         to  make    you     happy                when  you're


G|------- ------- ------- -------|------- ------- ------- -------|
D|-------------------------------|-------------------------------|
A|5-----------5------------------|5-----------5------------------|
E|----------------5--------------|----------------5--------------|
  blue,                                                   It's


G|------- ------- ------- -------|------- ------- ------- -------|
D|-------------------------------|-------------------------------|
A|-------------------------------|-------------------------------|
E|3-----------3---3--------------|3-----------3---3--------------|
  right,                  it's    right                   to


G|------- ------- ------- -------|------- ------- ------- -------|
D|----------------5--------------|------------------------5------|
A|3-----------3------------------|3-----------3---6--------------|
E|-------------------------------|-------------------------------|
  feel        the way     I       do,                     Be-


G|------- ------- ------- -------|------- ------- ------- -------|
D|-------------------------------|-------------------------------|
A|----------------5--------------|----------------5-----------5--|
E|3-----------3------------------|5-----------5------------------|
  cause,                  be  -   cause           I          love


G|------- ------- ------- -------|------- ------- ------- -------|
D|-------------------------------|-------------------------------|
A|----------------5--------------|-------------------------------|
E|3-----------3-----------3------|--------3---3-------3---3------|
  you.

Bridge:
G|------- ------- ------- -------|------- ------- ------- -------|
D|-------------------------------|-------------------------------|
A|----------------7--------------|5-----------5-----------5------|
E|5-----------5------------------|----------------5--------------|
          It's    wrong   to      say         I   don't think of


G|------- ------- ------- -------|------- ------- ------- -------|
D|-------------------------------|-------------------------------|
A|----------------5--------------|7-----------7------------------|
E|3-----------3------------------|----------------7--------------|
  you,


G|------- ------- ------- -------|------- ------- ------- -------|
D|-------------------------------|-------------------------------|
A|----------------7--------------|5-----------5------------------|
E|5-----------5------------------|----------------5--------------|
         'Cause   when    you     say these   things,         you


G|------- ------- ------- -------|------- ------- ------- -------|
D|-------------------------------|----------------7--------------|
A|----------------7--------------|5-----------5-----------5------|
E|5-----------5-----------5------|-------------------------------|
  know    it      makes me    blue.

Verse:
G|------- ------- ------- -------|------- ------- ------- -------|
D|-------------------------------|-------------------------------|
A|-------------------------------|-------------------------------|
E|3-----------3---3--------------|3-----------3---3--------------|
  Give            me      one     kiss,   and     I'll    be


G|------- ------- ------- -------|------- ------- ------- -------|
D|-------------------------------|-------------------------------|
A|-------------------------------|-------------------------------|
E|3-----------3---3--------------|3-----------3---3--------------|
  happy


G|------- ------- ------- -------|------- ------- ------- -------|
D|-------------------------------|-------------------------------|
A|----------------7--------------|----------------7--------------|
E|5-----------5------------------|5-----------5-----------5------|
  Just,                                just  to   be         with


G|------- ------- ------- -------|------- ------- ------- -------|
D|-------------------------------|-------------------------------|
A|5-----------5------------------|5-----------5-----------5------|
E|----------------5--------------|----------------5--------------|
  you.                                                    Give


G|------- ------- ------- -------|------- ------- ------- -------|
D|-------------------------------|-------------------------------|
A|----------------5--------------|----------------5--------------|
E|3-----------3------------------|3-----------3-----------3------|
  me,                     give    me                      a


G|------- ------- ------- -------|------- ------- ------- -------|
D|----------------5--------------|----------------5--------------|
A|3-----------3------------------|3-----------3-----------3------|
E|-------------------------------|-------------------------------|
  chance          to      be      near you,               Be-


G|------- ------- ------- -------|------- ------- ------- -------|
D|-------------------------------|-------------------------------|
A|----------------5--------------|----------------5-----------5--|
E|3-----------3-----------3------|5-----------5------------------|
  cause,                  be  -   cause           I          love


G|------- ------- ------- -------|------- ------- ------- -------|
D|-------------------------------|-------------------------------|
A|----------------5--------------|6-----------6---5-----------5--|
E|3-----------3-----------3------|-------------------------------|
  you.

Break (solo):
G|------- ------- ------- -------|------- ------- ------- -------|
D|-------------------------------|-------------------------------|
A|-------------------------------|-------------------------------|
E|3-----------3---3--------------|3-----------3---3--------------|



G|------- ------- ------- -------|------- ------- ------- -------|
D|-------------------------------|-------------------------------|
A|-------------------------------|-------------------------------|
E|3-----------3---3--------------|3-----------3---3--------------|



G|------- ------- ------- -------|------- ------- ------- -------|
D|-------------------------------|-------------------------------|
A|----------------7--------------|5-----------5------------------|
E|5-----------5------------------|----------------5-----------5--|



G|------- ------- ------- -------|------- ------- ------- -------|
D|-------------------------------|-------------------------------|
A|----------------5--------------|6-----------6---5-----------5--|
E|3-----------3------------------|-------------------------------|


Verse:
G|------- ------- ------- -------|------- ------- ------- -------|
D|-------------------------------|-------------------------------|
A|-------------------------------|-------------------------------|
E|3-----------3---3--------------|3-----------3---3--------------|
  Give            me      one     kiss,   and     I'll    be


G|------- ------- ------- -------|------- ------- ------- -------|
D|-------------------------------|-------------------------------|
A|-------------------------------|-------------------------------|
E|3-----------3---3--------------|3-----------3---3--------------|
  happy


G|------- ------- ------- -------|------- ------- ------- -------|
D|-------------------------------|-------------------------------|
A|----------------7--------------|----------------7--------------|
E|5-----------5------------------|5-----------5-----------5------|
  Just,                                just  to   be         with


G|------- ------- ------- -------|------- ------- ------- -------|
D|-------------------------------|-------------------------------|
A|5-----------5------------------|5-----------5-----------5------|
E|----------------5--------------|----------------5--------------|
  you.                                                    Give


G|------- ------- ------- -------|------- ------- ------- -------|
D|-------------------------------|-------------------------------|
A|-------------------------------|-------------------------------|
E|3-----------3---3--------------|3-----------3---3--------------|
  me,                     give    me                      a


G|------- ------- ------- -------|------- ------- ------- -------|
D|----------------5--------------|------------------------5------|
A|3-----------3------------------|3-----------3---6--------------|
E|-------------------------------|-------------------------------|
  chance          to      be      near you,               Be-


G|------- ------- ------- -------|------- ------- ------- -------|
D|-------------------------------|-------------------------------|
A|----------------5--------------|----------------5--------------|
E|3-----------3------------------|5-----------5------------------|
  cause,                  be  -   cause           I          love


G|------- ------- ------- -------|------- ------- ------- -------|
D|5-----------5---5--------------|----------------9--------------|
A|-------------------------------|7-----------7-----------7------|
E|-------------------------------|-------------------------------|
  you,                                                    Be-

Outro:
G|------- ------- ------- -------|------- ------- ------- -------|
D|-------------------------------|-------------------------------|
A|----------------7--------------|5-----------5-----------5------|
E|5-----------5------------------|----------------5--------------|
  cause,                  be  -   cause           I          love


G|------- ------- ------- -------|------- ------- ------- -------|
D|-------------------------------|-------------------------------|
A|----------------5-------2------|-------------------------------|
E|3-----------3------------------|3------------------------------|
  you.

Please e-mail me for any corrections, or write a comment.

            
            
Suggest correction
Creating personal tab
Creating personal tab
You can edit any tab online and save it as your Personal.

You can edit, replace or remove any tab part or add personal notes – all changes will be seen only by you.

Personal tabs can be accessed anytime from any device, even offline.
Learn more »
Give kudos to tab author, rate the tab!
1 2 3 4 5
comments
print report bad tab
guest
You may want to rate the tab now too:
select rating
Wanna post a correction for this tab? Suggest correction