Oops, an error
Loading. Please wait.

Five Steps tab

version 1
version 1

Whole song

Interactive

14,731 views 9 this week
1 commentread comment
1 2 3 4 5
x 9
add to favorites
×
Save as Personal and add changes to this tab that will be seen only by you. Learn more ›
×
You can save this tab as Personal to edit and correct it or add notes. All changes will be seen only by you. Learn more »
launch autoscroll
font size
0
reset
how to read this tab
guitar tuner
edit
Autoscroll
slow
fast
+/-
esc
set tempo
stop
Author
Alright...

Be kind, this is my first attempt at tabbing:





Five Steps
by The Davenports

http://profile.myspace.com/index.cfm?fuseaction=user.viewprofile&friendID=61479977


Standard tuning then drop A to G (EGDGBe)

   Veins        swell         you know   me      Ellen 
   Quick          cut             make your move        de-
e|--------------------------------------------------------------|
B|-8-------8-------6-------6------10--------10------6-------6---|
G|---7-------7-------0---------------0---------0------5-------5-|
D|-----9---------------7-----0---------10---------------6-------|
G|-0-----0---------0-----0--------0-------0---------0-----0-----|
E|--------------------------------------------------------------|

   Enough   to  tell              5                 steps you’re over
   liberate                       5                 steps you’re over
e|--------------------------------------------------------------|
B|-3-------3-------1-------1------1---------1-------3-------3---|
G|---0-------0-------0---------------0---------0------0-------0-|
D|-----3---------------2-----0---------2----------------4-------|
G|-0-----0---------0-----0--------0-------0---------0-----0-----|
E|--------------------------------------------------------------|



e|---------0-------------------0----------------0---------------|
B|-3-----------------0h3--------------0h3---------------3---3---|
G|---0-------0-----------0----------------0---------------------|
D|-----5-------------------5-----5----------5-----5-------5---5-|
G|-0-----0-----------0-------0--------0-------0---------0-------|
E|--------------------------------------------------------------|
Repeat 4x (lyrics in middle 2)  


Bridge:
              No repri-       mands         deliberate      de-
e|--------------------------------------------------------------|
B|-------5-------------3-------0------0-------4-------4---------|
G|-----5-------------3-----------0------0-------4-------4-------|
D|---5-----5-------3-----3---------0--------------4-------------|
G|-5-------------3-------------0-----0--------4-----4-----------|
E|--------------------------------------------------------------|

   mand with your two  feeted    hand
e|--------------------------------------------------------------|
B|-5-----5-------5-----5-------6-----6--------------------------|
G|-----5-------------5-----------5------------------------------|
D|---5-----5-------5-----5---------6----------------------------|
G|-0-------------0-------------0--------------------------------|
E|--------------------------------------------------------------|




 4.Get           back        this train’s a      coming      down
e|--------------------------------------------------------------|
B|-8-------8-------6-------6------10--------10------6-------6---|
G|---7-------7-------0---------------0---------0------5-------5-|
D|-----9---------------7-----0---------10---------------6-------|
G|-0-----0---------0-----0--------0-------0---------0-----0-----|
E|--------------------------------------------------------------|

   
      the track                   5                 steps you’re over
e|--------------------------------------------------------------|
B|-3-------3-------1-------1------1---------1-------3-------3---|
G|---0-------0-------0---------------0---------0------0-------0-|
D|-----3---------------2-----0---------2----------------4-------|
G|-0-----0---------0-----0--------0-------0---------0-----0-----|
E|--------------------------------------------------------------|


Outro:
e|--------------------------------------------------------------|
B|-8-------8-------6-------6------10--------10------6-------6---|
G|---7-------7-------0---------------0---------0------5-------5-|
D|-----9---------------7-----0---------10---------------6-------|
G|-0-----0---------0-----0--------0-------0---------0-----0-----|
E|--------------------------------------------------------------|


e|--------------------------------------------------------------|
B|-3-------3-------1-------1------1---------1-------3-------3---|
G|---0-------0-------0---------------0---------0------0-------0-|
D|-----3---------------2-----0---------2----------------4-------|
G|-0-----0---------0-----0--------0-------0---------0-----0-----|
E|--------------------------------------------------------------|


e|--------------------------------------------------------------|
B|-5-------5-------7-------7-----------8------------------------|
G|---0-------0-------0------------------------------------------|
D|-----5---------------7-----0-----7s9--------------------------|
G|-0-----0---------0-----0--------------------------------------|
E|--------------------------------------------------------------|

Tab by stmfitr636

            
            
Suggest correction
Creating personal tab
Creating personal tab
You can edit any tab online and save it as your Personal.

You can edit, replace or remove any tab part or add personal notes – all changes will be seen only by you.

Personal tabs can be accessed anytime from any device, even offline.
Learn more »
comments
print report bad tab
1 comment total.
0 reply
smartin6988 177 Apr 20, 2010 06:07 PM

great tab. its perfect

guest
You may want to rate the tab now too:
select rating
Wanna post a correction for this tab? Suggest correction