Oops, an error
Loading. Please wait.

Riot Radio tab

version 2
version 2

Whole song

5,051 views 3 this week
no commentswrite comment
1 2 3 4 5
x 3
add to favorites
×
Save as Personal and add changes to this tab that will be seen only by you. Learn more ›
×
You can save this tab as Personal to edit and correct it or add notes. All changes will be seen only by you. Learn more »
launch autoscroll
font size
0
reset
how to read this tab
guitar tuner
edit
Autoscroll
slow
fast
+/-
esc
set tempo
stop
Author
Tabbers playing skills
intermediate ++
Song: Riot Radio
Band: The Dead 60s
Album: The Dead 60s

INTRO:

gtr. 1
e|3-3-3-3-3-------------3-3-3-3-3-----------|
B|4-4-4-4-4-------------4-4-4-4-4-----------|
G|5-5-5-5-5-------------5-5-5-5-5-----------|
D|5-5-5-5-5-------------5-5-5-5-5-----------|
A|3-3-3-3-3-------------3-3-3-3-3-----------|
E|------------------------------------------|

gtr. 2
e|------------------------------------------|
B|------------------------------------------|
G|--------------3---------------------------|
D|------------3---3---------------3-5-------|
A|------------------6-----------------6-3---|
E|------------------------------------------|

^^repeat once

then guitar 3 kicks in:

gtr. 1
e|3-3-3-3-3-------------3-3-3-3-3-----------|
B|4-4-4-4-4-------------4-4-4-4-4-----------|
G|5-5-5-5-5-------------5-5-5-5-5-----------|
D|5-5-5-5-5-------------5-5-5-5-5-----------|
A|3-3-3-3-3-------------3-3-3-3-3-----------|
E|------------------------------------------|

gtr. 2
e|------------------------------------------|
B|------------------------------------------|
G|--------------3---------------------------|
D|------------3---3---------------3-5-------|
A|------------------6-----------------6-3---|
E|------------------------------------------|

gtr. 3 (pause after every stroke)
e|------------------------------------------|
B|------------------------------------------|
G|------------5---5---5-----------5---5---5-|
D|------------5---5---5-----------5---5---5-|
A|------------3---3---3-----------3---3---3-|
E|------------------------------------------|

^^repeat

VERSE:

same as Intro Part 2 (guitars 1, 2 and 3)

CHORUS:

gtr. 1
e|----------------------------------------------------------------|
B|9-9-9-9-9-----------------------9-9-9-9-9-----------------------|
G|1010101010----------------------1010101010----------------------|
D|1010101010----------------------1010101010----------------------|
A|8-8-8-8-8-----------------------8-8-8-8-8-----------------------|
E|----------------------------------------------------------------|

gtr. 2
e|----------------------------------------------------------------|
B|----------------------------------------------------------------|
G|----------------------------------------------------------------|
D|3-------3-------3-------4-------3-------3-------3-------4-------|
A|----------------------------------------------------------------|
E|----------------------------------------------------------------|


gtr. 3 (pause after every stroke)
e|------------------------------------------|
B|------------9---9---9-----------9---9---9-|
G|------------10--10--10----------10--10--10|
D|------------10--10--10----------10--10--10|
A|------------8---8---8-----------8---8---8-|
E|------------------------------------------|

then: same as Intro part 2 (guitars 1, 2 and 3)

then: last part of Chorus

gtr. 1
e|---------------------------------|
B|---------------------------------|
G|------------111111--11--11--11---|
D|------------x-x-x---x---x---x----|
A|------------9-9-9---9---9---9----|
E|---------------------------------|


gtr. 2   on offbeat - up-strums
e|---------------------------------|
B|---------------------------------|
G|----11------11------11------11---|
D|----11------11------11------11---| 
A|----9-------9-------9-------9----|
E|----9-------9-------9-------9----|

^^repeat once

gtr. 1
e|---------------------------------|
B|---------------------------------|
G|------------101010--10--10--10---|
D|------------x-x-x---x---x---x----|
A|------------8-8-8---8---8---8----|
E|---------------------------------|

gtr. 2   on offbeat - up-strums
e|---------------------------------|
B|---------------------------------|
G|----10------10------10------10---|
D|----10------10------10------10---| 
A|----8-------8-------8-------8----|
E|----8-------8-------8-------8----|

stop playing for last bar (singer shouts: riot on the radio)


those are all parts for the song except for the solo
I've only got bits of the solo, I'm going to update when I've got the whole

============================================================

x ... Mute Note

            
            
Suggest correction
Creating personal tab
Creating personal tab
You can edit any tab online and save it as your Personal.

You can edit, replace or remove any tab part or add personal notes – all changes will be seen only by you.

Personal tabs can be accessed anytime from any device, even offline.
Learn more »
Give kudos to tab author, rate the tab!
1 2 3 4 5
comments
print report bad tab
guest
You may want to rate the tab now too:
select rating
Wanna post a correction for this tab? Suggest correction