Oops, an error
Loading. Please wait.

60 Feet Tall tab

version 1
version 1

Whole song

31,271 views 12 this week
1 commentread comment
1 2 3 4 5
x 7
add to favorites
×
Save as Personal and add changes to this tab that will be seen only by you. Learn more ›
×
You can save this tab as Personal to edit and correct it or add notes. All changes will be seen only by you. Learn more »
launch autoscroll
font size
0
reset
how to read this tab
guitar tuner
edit
Autoscroll
slow
fast
+/-
esc
set tempo
stop
Difficulty
This is my first tab and i seriously cant be f'd tabbing the solo because i
don't play it as they do i just mess around in the key in a similar
vein.....Dean brings in the delay peddle through the solo at strange times
making it confusing to tab but damn fine to listen to!

The intro/main riff is super simple and has a sweet groove to it that is
jarred by the drums.
e---------------------------|
b---------------------------|
g-------------5-------------|
d-0--3---5/7-----3~---------| strong vibrato on the last note
a---------------------------|
e---------------------------|
This is pretty much the whole song for lead guitar.... there are minor
variations... when the delay is off dean plays something like this:
e---------------------------|
b---------------------------|
g--------------------5------|
d-0--3-3-3------5/7-----3~--| strong vibrato on the last note
a---------------------------|
e---------------------------|


As for the solo its in the key of D and as far as i can tell is played over
the Minor Pentatonic main box at the 10th fret.
Seems like it begins with something around the lines of this:

e----------------------------|
b----------------------------|
g----12b14r12--10h12p10------|
d------------------------12~-|
a----------------------------|
e----------------------------|

Theres a lick something like this in there:
e-----------------------10~--|
b----------------------------|
g-----12b14r12p10------------|
d------------------12--------|
a----------------------------|
e----------------------------|

e--------------------------------------------------------|
b---------------------13~--------------------------------|
g-----12b14r12p10------------12b14r12p10-------10~-------|
d------------------12----------------------12------12~---|
a--------------------------------------------------------|
e--------------------------------------------------------|

now go figure the whole solo out people!

b - bend
r - release
h - hammer on
p - pull off
~ - vibrato

As jack white said in an interview with Dazed and Confused Magazine: "We're
all playing the blues. if you dont realise that....you're lying to yourself"

            
            
Suggest correction
Creating personal tab
Creating personal tab
You can edit any tab online and save it as your Personal.

You can edit, replace or remove any tab part or add personal notes – all changes will be seen only by you.

Personal tabs can be accessed anytime from any device, even offline.
Learn more »
comments
print report bad tab
1 comment total.
+1 reply
Linkerman 1,271 Nov 06, 2009 08:02 AM

I think the main riff is more like this:
e|-----------------------|
B|-----------------------|
G|----------------5h7----|
D|-3h5p0-3-3--5/7-----5~-|
A|-----------------------|
E|-----------------------|

guest
Wanna post a correction for this tab? Suggest correction